Guitar Tabs, Chords and Lyrics


Hrk Joks Si Mars Patukkaa Joka Maistui Aivan Paavo Pesusienelle   Misc. Unsigned Bands



   (heavy distortion)
|-----------------------------------------------------------|
|-----------------------------------------------------------|
|------------------------5--4----------------------9--------|
|-3--5--7-------3--5--7-----------3--5--7----3--5--7--------|
|-----------------------------------------------------------|
|-----------------------------------------------------------|

   (acoustic sound)

|--------------------------------|  |-------------------------------------|
|-----------5--------------------|  |-----------5-------------------------|
|----5-----5---5-----4-----------|  |----5-----5---5-----4----------------|
|---7-----3---5-----5-----3-----5|  |---7-----3---5-----5-----3-----5-----|
|--7---------3-----5-----3-----5-|  |--7---------3-----5-----3-----5------|


Important: The song above is NOT stored on the Chordie server. The original song is hosted at www.guitaretab.com. Chordie works as a search engine and provides on-the-fly formatting. Chordie does not index songs against artists'/composers' will. To remove this song please click here.

This song is displayed as text-only. Transposing and tuning is only available for chordpro-songs.

Login - add to songbook

Rating click stars to rate

Layout
Accuracy

SHARE PAGE  




You need to log in to post comments