Guitar Tabs, Chords and Lyrics


Signals   Misc. Unsigned Bands



** INTRO **
e:----------------------------------------------------|
B:----------------------------------------------------|
G:----------------------------------------------------|
D:--777777777777777----------777777777777777----------| x 2
A:--555555555555555----------555555555555555----------|
E:--000000000000000----------666666666666666----------|

** ENDING OF INTRO? ** (Not Exact # of strums VVVVVVV)
e:----------------------------------------------------|
B:----------------------------------------------------|
G:--9999999999---111111111111--121212121212-----------|
D:--XXXXXXXXXX---XXXXXXXXXXXX--XXXXXXXXXXXX-----------|
A:--7777777777---999999999999--101010101010-----------|
E:----------------------------------------------------|


e:----------------------------------------------------|
B:----------------------------------------------------|
G:--1111111111---77777777777---999999999999-----------|
D:--XXXXXXXXXX---XXXXXXXXXXX---XXXXXXXXXXXX-----------|
A:--9999999999---55555555555---777777777777-----------|
E:----------------------------------------------------|


e:----------------------------------------------------|
B:----------------------------------------------------|
G:--9-9-9-9-9-9-9-9------11-11-11-11-----12-12--------|
D:--X-X-X-X-X-X-X-X------X--X--X--X------X--X---------|
A:--7-7-7-7-7-7-7-7------9--9--9--9------10-10--------|
E:----------------------------------------------------|


e:----------------------------------------------------|
B:----------------------------------------------------|
G:--11\12\11\7-----5-5-5-5-5-5---9-9-9-9-9-9----------|
D:--X \X \X \X-----X-X-X-X-X-X---X-X-X-X-X-X----------|
A:--9 \10\9 \9-----7-7-7-7-7-7---7-7-7-7-7-7----------|


Important: The song above is NOT stored on the Chordie server. The original song is hosted at www.guitaretab.com. Chordie works as a search engine and provides on-the-fly formatting. Chordie does not index songs against artists'/composers' will. To remove this song please click here.

This song is displayed as text-only. Transposing and tuning is only available for chordpro-songs.

Login - add to songbook

Rating click stars to rate

Layout
Accuracy

SHARE PAGE  




You need to log in to post comments