Guitar Tabs, Chords and Lyrics


The Darnell Song   Misc. Unsigned Bands



                                                                                 intro

e [-------------------------------------------------------------------------|
B [-------------------------------------------------------------------------|  All of this
G [-------------------------------------------------------------------------|        (x2)
D [----2--4-5-4-2-4-2- (x4)---7-7/9-7-5-7-(x2)----9-9/10-9-7-9---(x2)-------|
A [---2-2-------------------5--5----------------7--7------------------------|
E [--0---------------------3-------------------5----------------------------|

          Then...
e [--------------------------------------|
B [--------------------------------------|
G [--------------------------------------|
D [----2---2~~~---5~~~---7~~~---9~~~-----|
A [---2-2--2~~~---5~~~---7~~~---9~~~-----|


Important: The song above is NOT stored on the Chordie server. The original song is hosted at www.guitaretab.com. Chordie works as a search engine and provides on-the-fly formatting. Chordie does not index songs against artists'/composers' will. To remove this song please click here.

This song is displayed as text-only. Transposing and tuning is only available for chordpro-songs.

Login - add to songbook

Rating click stars to rate

Layout
Accuracy

SHARE PAGE  




You need to log in to post comments