Guitar Tabs, Chords and Lyrics


The Legendary Theme   Misc. Unsigned Bands



                         The Legendary Theme (Acoustic) - Gitaroo Man
                                    Tabbed For Solo Guitar


Tabbed by:Xaxu
Tuning:Standard

Intro
  0:01 - 0:14
e|-----------------------------------|
B|------0-------0-------0-------0----|
G|------1-------1-------2-------2----|
D|----2---2---2---2---2---2---2---2--|
A|------------------0-------0--------|
E|--0-------0------------------------|x2

Main
  0:15 - 1:07
e|--------------------------4-------------------------------------------------------|
B|---------4------------------4--5---------4----4/6--6b-------------5------------5--|
G|--1/2--4---4--4/6--1/2--4---4--6--1/2--4---4--4/6--6b--4--2--1--2---4--2--1--2----|
D|----------------------------------------------------------------------------------|
A|----------------------------------------------------------------------------------|
E|----------------------------------------------------------------------------------|x2

Bridge
  1:08 - 1:22
e|--2--0--4---------4--4/5--4--2--0--4---------4--4/5--4--2--0--|
B|----------5--7--5--------------------5--7--5------------------|
G|--------------------------------------------------------------|
D|--------------------------------------------------------------|
A|--------------------------------------------------------------|
E|--------------------------------------------------------------|

  1:23 - 1:34
e|--2--4--2--------------------------2--4--|
B|----------4---4/6--6b--4---------2-------|
G|------------4------------4--2--4---------|
D|-----------------------------------------|
A|-----------------------------------------|
E|-----------------------------------------|

  1:35 - 1:50
e|2--0--4---------4--4/5--4--2--0--4---------4--4/5--4--2--0--|
B|--------5--7--5--------------------5--7--5------------------|
G|------------------------------------------------------------|
D|------------------------------------------------------------|
A|------------------------------------------------------------|
E|------------------------------------------------------------|

  1:51 - 2:01
e|--4---------------------0--2--4--4/5--2--|
B|----5--7--5--4--2--2--4------------------|
G|-----------------------------------------|
D|-----------------------------------------|
A|-----------------------------------------|
E|-----------------------------------------|

Outro
  2:04 -  2:28
e|---------------------------4-------|
B|---------4-------------------4--5--|
G|--1/2--4---4--4/6---1/2--4---4--6--|
D|-----------------------------------|
A|-----------------------------------|
E|-----------------------------------|x2

End
  2:29 - 2:33
e|--4--2--0--|
B|-----------|
G|-----------|
D|-----------|
A|-----------|
E|-----------|

Hope you like it!


Important: The song above is NOT stored on the Chordie server. The original song is hosted at www.guitaretab.com. Chordie works as a search engine and provides on-the-fly formatting. Chordie does not index songs against artists'/composers' will. To remove this song please click here.

This song is displayed as text-only. Transposing and tuning is only available for chordpro-songs.

Login - add to songbook

Rating click stars to rate

Layout
Accuracy

SHARE PAGE  




You need to log in to post comments