Guitar Tabs, Chords and Lyrics


I Have About 1000 Things To Say To You   Misc. Unsigned Bands



I Have About 1000 Things To Say To You - The Diverse Attraction
Tabbed By: kylemain
Tuning: Drop C (CGCFAD)

Intro
D|--0-----0-----0-----0-----0-----0-----0------0--|
A|----6-----6-----6-----6-----6-----6-----6----6--|
F|------5-----5-----5-----5-----5-----5-----5--5--|
C|------------------------------------------------|
G|------------------------------------------------|
C|------------------------------------------------|


Oh Oh
D|------------------------------------------------|
A|------------------------------------------------|
F|------------------------------------------------|
C|--0----0----0----0-0-0--------------------------|
G|--0----0----0----0-0-0--------------------------|
C|--0----0----0----0-0-0--------------------------| REPEAT
PM                 ' ' '


puncture my lungs..
D|--------------------------------------------------|
A|--------------------------------------------------|
F|--------------------------------------------------|
C|---7777-888888888888888888888888-0--0--0--0-------| REPEAT
G|---7777-888888888888888888888888-0--0--0--0-------|
C|---7777-888888888888888888888888-0--0--0--0-------|
PM   ''''


maybe it who she is..
D|--------------------------------------------------|
A|--------------------------------------------------|
F|--55555555--2-22-4-4b5r---------------------------|
C|--55555555--2-22-2-2----33333333333333------------|
G|--33333333--0-00-0-0----33333333333333------------|
C|------------------------33333333333333------------| REPEAT


TAKE BACK!!1
D|-----------------------------------------------------|
A|---------------------------------555555-3333---------|
F|--------101010101010-9999----------------------------|
C|-77777--------------------33333----------------------| REPEAT
G|-77777--------------------33333----------------------|
C|-77777--------------------33333----------------------|


Important: The song above is NOT stored on the Chordie server. The original song is hosted at www.guitaretab.com. Chordie works as a search engine and provides on-the-fly formatting. Chordie does not index songs against artists'/composers' will. To remove this song please click here.

This song is displayed as text-only. Transposing and tuning is only available for chordpro-songs.

Login - add to songbook

Rating click stars to rate

Layout
Accuracy

SHARE PAGE  




You need to log in to post comments