Guitar Tabs, Chords and Lyrics


Speed Zone   Misc. Unsigned Bands



Intro Riff:
e/--------------------------------------------------------------------------|
b/-----------7b--7-5-5----------------5-----5--------------15---------------|
g/-9--9--9---------------7--7--7---5h6---5h6--5--5--5---14b---14b-----------|
d/-9--9--9---------------7--7--7--------------5--5--5-------------14-14-----|
a/-7--7--7---------------5--5--5--------------3--3--3-----------------------|
e/-0--0--0------------------------------------------------------------------|

e/---------------------|
b/-----------7--5--3-5-|
g/-9--9--9-------------|
d/-9--9--9-------------|
a/-7--7--7-------------|
e/-0--0--0-------------|

Verse:
e/----------------------------------------------------------------------|
b/----------------------------------------------------------------------|
g/-----9-x-9---7-7-7-7-----------9-x-9---7-7-7-7------------------------|
d/-----9-x-9---7-7-7-7--2-2-2-2--9-x-9---7-7-7-7--2-2-2-2---------------|
a/-----7-x-7---5-5-5-5--0-0-0-0--7-x-7---5-5-5-5--0-0-0-0---------------|
e/-0-0------------------------------------------------------------------|

e/-----------------------------------------------------|
b/-----------------------------------------------------|
g/--9-x-9---7-7-7-7-----------9-x-9---7-7-7-7----------|
d/--9-x-9---7-7-7-7--2-2-2-2--9-x-9---7-7-7-7--2-2-2-2-| let note ring
a/--7-x-7---5-5-5-5--0-0-0-0--7-x-7---5-5-5-5--0-0-0-0-|
e/-----------------------------------------------------|
pick slide on low e string

Chorus:
e/------------------------------------------------------------|
b/------------------------------------------------------------|
g/-6--6--6-6-0-------------------6--6--6-6-0------------------|
d/-6--6--6-6-0-7--7-7-7-7-7-7-7--6--6--6-6-0-7--7-7-7-7-7-7-7-|
a/-4--4--4-4-0-7--7-7-7-7-7-7-7--4--4--4-4-0-7--7-7-7-7-7-7-7-|
e/-------------5--5-5-5-5-5-5-5--------------5--5-5-5-5-5-5-5-|

e/--------------------------------------------------------------------------|
b/--------------------------------------------------------------------------|
g/-6--6--6-6-0-------------------6--6--6-6-0--------------------------------|
d/-6--6--6-6-0-7--7-7-7-7-7-7-7--6--6--6-6-0-7--7-7-7-7-7-7-7-7-7-7-7-7-7-7-|
a/-4--4--4-4-0-7--7-7-7-7-7-7-7--4--4--4-4-0-7--7-7-7-7-7-7-7-7-7-7-7-7-7-7-|
e/-------------5--5-5-5-5-5-5-5--------------5--5-5-5-5-5-5-5-5-5-5-5-5-5-5-|
                                           p.m./----------------------------|

for solo: improvise on an A blues scale
for solo 2: Improvise on Db/C# Blues Scale


Order:
Intro Riff
Verse
Chorus
Verse
Chorus
Solo 1 (play verse for rythm guitar)
Solo 2 (play chorus for rythm guitar)
Verse
Chorus


Important: The song above is NOT stored on the Chordie server. The original song is hosted at www.guitaretab.com. Chordie works as a search engine and provides on-the-fly formatting. Chordie does not index songs against artists'/composers' will. To remove this song please click here.

This song is displayed as text-only. Transposing and tuning is only available for chordpro-songs.

Login - add to songbook

Rating click stars to rate

Layout
Accuracy

SHARE PAGE  




You need to log in to post comments