Guitar Tabs, Chords and Lyrics


Astronaut   Misc. Unsigned Bands



Intro, Versus, Break and Outro:

|-----------------------------------------------|
|-----------------------------------------------|
|-44--4-44--4-44--2-4422------------------------|
|-44--4-44--4-44--2-4422-55--5-55--5-55--5-5555-|
|-22--2-22--2-22--2-2200-55--5-55--5-55--5-5555-|
|------------------------33--3-33--3-33--3-3333-|
                                                   PLAM MUTE DURING
|----------------------------------------------|   2ND VERSE AND BREAK
|----------------------------------------------|
|-77--7-77--7-77-7-7777------------------------|
|-77--7-77--7-77-7-7777-77--7-77--7-77--7-7777-|
|-55--5-55--5-55-5-5544-77--7-77--7-77--7-7777-|
|-----------------------55--5-55--5-55--5-5555-|


CHORUS:

|-----------------------------------------------|
|-----------------------------------------------|
|-44--4-44--4-44--4-4444------------------------|
|-44--4-44--4-44--4-4444-55--5-55--5-55--5-5555-|
|-22--2-22--2-22--2-2222-55--5-55--5-55--5-5555-|
|------------------------33--3-33--3-33--3-3333-|

background
during song:

|----------------------------------9--10-----|
|----10----7--------10----7---------------10-|
|-7------7---9-7-7------7---9-7-7------------|   
|--------------------------------------------|   
|--------------------------------------------|    
|--------------------------------------------|

part during break:

|----------------------------------9--10----------|
|----10----7--------10----7---------------10--7---|
|-7------7---9-7-7------7---9-7-7---------------9-|
|-------------------------------------------------|  (2x)then play the normal
|-------------------------------------------------|      riff 
|-------------------------------------------------|     

play until end:
|----------------------------------9--10-----|         |---|
|----10----7--------10----7---------------10-|         |---|
|-7------7---9-7-7------7---9-7-7------------|         |-7-| LET RING
|--------------------------------------------|  END ON |---|
|--------------------------------------------|         |---|
|--------------------------------------------|         |---|


Archer Avenue is the band Richard Edwards was in before 
Margot and the Nuclear So & So's.  They released the
album titled Astronaut on Mariel Records 2003.

for lyrics go to: http://www.songmeanings.net/songs/view/3530822107858625852/


Important: The song above is NOT stored on the Chordie server. The original song is hosted at www.guitaretab.com. Chordie works as a search engine and provides on-the-fly formatting. Chordie does not index songs against artists'/composers' will. To remove this song please click here.

This song is displayed as text-only. Transposing and tuning is only available for chordpro-songs.

Login - add to songbook

Rating click stars to rate

Layout
Accuracy

SHARE PAGE  




You need to log in to post comments