Guitar Tabs, Chords and Lyrics


The Breakthrough   Misc. Unsigned Bands



These are the guitar parts that I play for the song "The Breakthrough" in my band 
Fight the Odds!  The tuning is in Drop D; the key is D Major.



INTRO:

4/4
|---------|-----------|---------|------------|
|---------|-----------|---------|------------|
|---------|-----------|---------|------------|
|---------|-----------|---------|------------|
|-0-------|-7--5----7-|-0-------|-7--5----7--|
|-0-------|-7--5----7-|-0-------|-7--5----7--|



VERSES:

|-----------------|-----------------|-----------------|--------------------|
|-----------------|-----------------|-----------------|--------------------|
|-----------------|-------------7---|-----------------|---------------x-x--|
|----7--4-5-4-5-4-|----7--4-5-4-----|----7--4-5-4-7---|-4-5-7--4-5-7--x-x--|
|-5---------------|-5---------------|-5---------------|---------------x-x--|
|-----------------|-----------------|-----------------|--------------------|



BREAKDOWNS:

*[5] means pinch harmonic on that note; also note the breakdown alternates between 
two time signatures.

 
2/4
  PM--|          PM--|          PM--|          PM--|
|--------------|--------------|--------------|--------------|
|--------------|--------------|--------------|--------------|
|--------------|--------------|--------------|--------------|
|--------------|--------------|--------------|--------------|
|-0-0----[5]---|-0-0----7-5---|-0-0----[5]---|-0-0----7-5---|
|-0-0-0--------|-0-0-0--7-5---|-0-0-0--------|-0-0-0--7-5---|



 4/4
|-----------------|-----------------|
|-----------------|-----------------|
|-7-7-7-7-7-7-7-7-|-9-9-9-9-9-9-9-9-|
|-5-5-5-5-5-5-5-5-|-7-7-7-7-7-7-7-7-|
|-5-5-5-5-5-5-5-5-|-7-7-7-7-7-7-7-7-|
|-5-5-5-5-5-5-5-5-|-7-7-7-7-7-7-7-7-|



OUTRO:

|-----------------|
|-----------------|
|-----------------|
|-----------------|
|-0---------------|
|-0---------------|


Important: The song above is NOT stored on the Chordie server. The original song is hosted at www.guitaretab.com. Chordie works as a search engine and provides on-the-fly formatting. Chordie does not index songs against artists'/composers' will. To remove this song please click here.

This song is displayed as text-only. Transposing and tuning is only available for chordpro-songs.

Login - add to songbook

Rating click stars to rate

Layout
Accuracy

SHARE PAGE  




You need to log in to post comments