Guitar Tabs, Chords and Lyrics


Outside  Misc. Unsigned Bands

[Am]Bones sinking like s[C]tones all that we [F]fall for

[Am]Homes places we've g[C]rown all of this are do[F]ne for

Chorus:
[Dm]We live in a beautiful world, [Am]

[G]Yeah we do, Yeah we do

[Dm]We live in a beautiful world, [F]
[G]Yeah we do, Yeah we do
Couplet 2:
[Am]Bones sinking like s[C]tones all that we [F]fall for

[Am]Homes places we've g[C]rown all of this are do[F]ne for

Chorus:
[Dm]We live in a beautiful world, [Am]

[G]Yeah we do, Yeah we do

[Dm]We live in a beautiful world, [F]
[G]Yeah we do, Yeah we do
Couplet 3:
[Am]When I look at the wo[C]rld I see a lot pe[F]ople poor

[Am]They all can be r[C]ich if we give a b[F]it more

Chorus:
[Dm]We live in a beautiful world, [Am]

[G]Yeah we do, Yeah we do

[Dm]We live in a beautiful world, [F]
[G]Yeah we do, Yeah we do
Chords Solo:
Am, C, F (2X) just as in the Couplets

Chorus:
[Dm]We live in a beautiful world, [Am]

[G]Yeah we do, Yeah we do

[Dm]We live in a beautiful world, [F]
[G]Yeah we do, Yeah we do
Couplet 4:
[Am]O, all that I've kn[C]ow, There's nothing here to [F]run from
[Am]And there, everybody her[C]e`s got somebody to lea[F]n on.


Now the tablature

You need to play this the second and third Couplet:

 e|-------------------------------------------------------------------|
 B|5---------8----6---5-----5---------8----6---5---3---1--------------|
 G|5------------------------5-----------------------------------------|
 D|-------------------------------------------------------------------|
 A|-------------------------------------------------------------------|
 E|-------------------------------------------------------------------|
 e|-------------------------------------------------------------------|
 B|5---------8----6---5-----5---------8----6---5--6--5---1------------|
 G|5------------------------5-----------------------------------------|
 D|-------------------------------------------------------------------|
 A|-------------------------------------------------------------------|
 E|-------------------------------------------------------------------|


Play this at the Chorus:

 e|5-5-5-5-5-5-5-5-7-7-7-8--8--8------------------------15-------15----|
 B|-------------------------------5-5-5-5-5-5-5-5---13------13------13-|
 G|--------------------------------------------------------------------|
 D|--------------------------------------------------------------------|
 A|--------------------------------------------------------------------|
 E|--------------------------------------------------------------------|
 e|5-5-5-5-5-5-5-5-7-7-7-8--8--8--------5-------------------5----------|
 B|-------------------------------5--6-----5--6--5----5--6-----5--6--5-|
 G|--------------------------------------------------------------------|
 D|--------------------------------------------------------------------|
 A|--------------------------------------------------------------------|
 E|--------------------------------------------------------------------|


And last but not least, the Solo:

 e|--12--12--12--12--12--12--12--12/------5-------------------5----------|
 B|13--13--13--13--13--13--13--13--/5--6-----5--6--5----5--6-----5--6--5-|
 G|----------------------------------------------------------------------|(2X)
 D|----------------------------------------------------------------------|
 A|----------------------------------------------------------------------|
 E|----------------------------------------------------------------------|



Thanks to:
Ultimate-Guitar

Our Band: Klaas van den Broeke (bass), Thomas Kemp (drums), Tomas van den
Broeke (guitar), Bas Swillens (voice & guitar)

Important: The song above is NOT stored on the Chordie server. The original song is hosted at www.guitaretab.com. Chordie works as a search engine and provides on-the-fly formatting. Chordie does not index songs against artists'/composers' will. To remove this song please click here.

Text color:
Chord color:
Chord grids: 
Font size:    
Page size: 

Am C Dm F G
variations - click chord images

Login - add to songbook

Transpose chords

Tuning

Rating click stars to rate

Layout
Accuracy

SHARE PAGE  




You need to log in to post comments