Guitar Tabs, Chords and Lyrics


Iris  Misc. Unsigned Bands

[F#m]I watched you [D]fight through [F#m]all of the [D]pain.
[F#m]Anger: I feel [D]it when [A]I hear your [E]name.
[F#m]I tried to [D]help you [F#m]the best that I [D]can.
[F#m]Destroying me [D]now won't [A]make you a [E]man.

*Chorus*
[F#m]Believing all the [D]lies from [A]you who gave me [E]life.
[F#m]Hating you as you [D]die, I cou[E]ld not say good-[F#m]bye.

---A Second Guitar plays this in the Chorus---
e|-------9-10-9-7-12-10-9-10-9---------9-10-9-7-12-10-9-14------|
B|--7-10-----------------------10-7-10--------------------------|
G|--------------------------------------------------------------|
D|--------------------------------------------------------------|
A|--------------------------------------------------------------|
E|--------------------------------------------------------------|


Verse 2
[F#m]I am still [D]hearing [F#m]all that was [D]said,
[F#m]The nightmare we [D]lived still [A]stuck in my [E]head.
[F#m]The memories l[D]eft seem [F#m]more like a [D]mess.
[F#m]Now you are [D]gone, and [A]its for the [E]best.

*Chorus*

Bridge
What it's worth
Recoil memories of you, out of control.
Say it was all out of love, when you never had a soul.
e|------------------------------------------------------------------|repeat x3
B|------------------------------------------------------------------|
G|------------------------------------------------------------------|
D|--4-4-4-4-4-4-4-4-4-4-4-4-4-2-0-0-0-0-0-0-0-2-2-2-2-2-2-4---------|
A|--4-4-4-4-4-4-4-4-4-4-4-4-4-2-0-0-0-0-0-0-0-2-2-2-2-2-2-4---------|
E|--2-2-2-2-2-2-2-2-2-2-2-2-2-0---------------0-0-0-0-0-0-2---------|



[F#m---F#m]Just rot. [F#m]    [F#m]    [F#m]    [F#m]    [F#m]    [F#m]
Verse 3
[F#m]Now, you are [D]dead to [F#m]me anyway[D].
[F#m]The pain you have [D]caused me [A]will fade [E]away.
[F#m]I will go [D]on, [F#m]you will [D]remain.
[F#m]You think [D]you tried, and [E]I think you're [F#m]insane.[F#m]    [F#m]

Important: The song above is NOT stored on the Chordie server. The original song is hosted at www.guitaretab.com. Chordie works as a search engine and provides on-the-fly formatting. Chordie does not index songs against artists'/composers' will. To remove this song please click here.

Text color:
Chord color:
Chord grids: 
Font size:    
Page size: 

A D E F#m
variations - click chord images

Login - add to songbook

Transpose chords

Tuning

Rating click stars to rate

Layout
Accuracy

SHARE PAGE  




You need to log in to post comments