Guitar Tabs, Chords and Lyrics


They Tell   Misc. Unsigned Bands



Then Galaxies Collide
They Tell

I've played it a few times, and it sounds 100% correct. If you have any correct, email me.

h = hammeron
p = pulloff
/= slide

E  :----------------|-----------------------|----------------|
B  :----------------|-----------------------|----------------|
G  :------6---------|------9-7-h9-p7--------|------4---------|
D  :----4-----7-6---|----7-----------11-9-7-|----2-----6-4-2-|
A  :--4-----------7-|--7--------------------|--2-------------|
D  :4---------------|7----------------------|2---------------|

             unsure of this weird part....                       
E  :------------------------------------------|----------------|
B  :------------------------------------------|----------------|
G  :------2-2-h4-p2-/1-h2-p1-/2-h4-p2-/1-h2-p1|------6---------|
D  :----4-------------------------------------|----4-----7-6---|
A  :--0---------------------------------------|--4-----------7-|
D  :0-----------------------------------------|4---------------|

                                                             
E  :-----------------------|----------------|----------------|
B  :-----------------------|----------------|----------------|
G  :------9-7-h9-p7--------|------4---------|2---------------|
D  :----7-----------11-9-7-|----2-----6-4-2-|4---------------|
A  :--7--------------------|--2-------------|0---------------|
D  :7----------------------|2---------------|0---------------|

                    Do you feel okay, Do you feel okay                                   
E  :----------------|----------------|----------------|----------------|
B  :----------------|----------------|----------------|----------------|
G  :----------------|2-----2-----2---|6-----6-----6---|1-----1-----1---|
D  :----------------|4-----4-----4---|7-----7-----7---|2-----2-----2---|
A  :----------------|4-----4-----4---|7-----7-----7---|2-----2-----2---|
D  :----------------|4-----4-----4---|7-----7-----7---|2-----2-----2---|

                                                                       
E  :----------------|----------------|----------------|----------------|
B  :----------------|----------------|----------------|----------------|
G  :2-----2-----2---|2-----2-----2---|6-----6-----6---|1-----1-----1---|
D  :4-----4-----4---|4-----4-----4---|7-----7-----7---|2-----2-----2---|
A  :0-----0-----0---|4-----4-----4---|7-----7-----7---|2-----2-----2---|
D  :0-----0-----0---|4-----4-----4---|7-----7-----7---|2-----2-----2---|

                                                           
E  :----------------|-----------------|--------------------|
B  :----------------|-----------------|--------------------|
G  :2-----2-----2---|6-----6-----6-6-6|-9------9------9--9-|
D  :4-----4-----4---|7-----7-----7-7-7|11-----11-----11-11-|
A  :0-----0-----0---|4-----4-----4-4-4|-7------7------7--7-|
D  :0-----0-----0---|4-----4-----4-4-4|-7------7------7--7-|

                                     
E  :----------------|----------------|
B  :----------------|----------------|
G  :4-----4---4-4-4-|2-----2-----2-2-|
D  :6-----6---6-6-6-|4-----4-----4-4-|
A  :2-----2---2-2-2-|0-----0-----0-0-|
D  :2-----2---2-2-2-|0-----0-----0-0-|


Important: The song above is NOT stored on the Chordie server. The original song is hosted at www.guitaretab.com. Chordie works as a search engine and provides on-the-fly formatting. Chordie does not index songs against artists'/composers' will. To remove this song please click here.

This song is displayed as text-only. Transposing and tuning is only available for chordpro-songs.

Login - add to songbook

Rating click stars to rate

Layout
Accuracy

SHARE PAGE  




You need to log in to post comments