Guitar Tabs, Chords and Lyrics


I Stole Your Cd   Misc. Unsigned Bands



BAND : Matt Steele K and I Band
SONG : I Stole Your CD

please put in my "misc songs" page!

here is one of my own songs

|-------------------------------------------
|-------------------------------------------
|----------4~xxxx---------------------------
|-4~xxxx---4~xxxx---4~xxxx---6~~------------
|-4~xxxx---2~xxxx---4~xxxx---6~~------------
|-2~xxxx------------2~xxxx---4~~------------

|---------------------------------
|---------------------------------
|-----------4-4-44444-------------
|-4-4-44444-4-4-44444-4-4-44444-6~
|-4-4-44444-2-2-22222-4-4-44444-6~


Important: The song above is NOT stored on the Chordie server. The original song is hosted at www.guitaretab.com. Chordie works as a search engine and provides on-the-fly formatting. Chordie does not index songs against artists'/composers' will. To remove this song please click here.

This song is displayed as text-only. Transposing and tuning is only available for chordpro-songs.

Login - add to songbook

Rating click stars to rate

Layout
Accuracy

SHARE PAGE  




You need to log in to post comments