Guitar Tabs, Chords and Lyrics


Jootmin   Misc. Unsigned Bands



to find more on this new band go to www.webradium.com/emansite


^=wait till the note dies away to start playing again
%=repeat notes in bars
~=vibrate
/=slide


e----------------------------|-------------------------------------------------
b----------------------------|-------------------------------------------------
D----------------------------|-------------------------------------------------
G----------------------------|-------------------------------------------------
A----------------------------|--5----7----3----5----5----7----3----5--5--7--3--
E--14--12--14--12/10--10--0^-|--5----7----3----5----5----7----3----5--5--7--3--

e----------------------------------0#^-|-----------|-----|-----------|-----|---
b----------------------------------0---|-----------|-----|-----------|-----|---
D----------------------------------0---|-----------|-----|--7-7-7-7--|-----|---
G----------------------------------4---|--7-7-7-7--|-----|--7-7-7-7--|-----|---
A--5--5--7--3--5-5-7-3-5-5-7-3-5---4---|--7-7-7-7--|--%--|--5-5-5-5--|--%--|---


Important: The song above is NOT stored on the Chordie server. The original song is hosted at www.guitaretab.com. Chordie works as a search engine and provides on-the-fly formatting. Chordie does not index songs against artists'/composers' will. To remove this song please click here.

This song is displayed as text-only. Transposing and tuning is only available for chordpro-songs.

Login - add to songbook

Rating click stars to rate

Layout
Accuracy

SHARE PAGE  




You need to log in to post comments