Guitar Tabs, Chords and Lyrics


Fast Forward   Misc. Unsigned Bands



  hey.this is my band's song.it's our first song ever. i hope you like it
  & rock on!! STRICKTLY PUNK!! -sk8er_guy259@yahoo.com!!

      intro:
     guitar1

     e---------------------------------------
     b---------------------------------------
     g---------------------------------------
     d---------------------------------------
     a--11-11-11-11-11-11-11-----------------
     e--9-9-9-9-9-9-9------------------------

     e---------------------------------------
     b---------------------------------------
     g---------------------------------------
     d---------------------------------------
     a--6-6-6-6-6-6-6------------------------
     e--4-4-4-4-4-4-4------------------------

     e---------------------------------------
     b---------------------------------------
     g---------------------------------------
     d---------------------------------------
     a--8-8-8-8-8-8-8------------------------
     e--6-6-6-6-6-6-6------------------------
    
     e---------------------------------------
     b---------------------------------------
     g---------------------------------------
     d---------------------------------------
     a--4-4-4-4-4-4-4------------------------


Important: The song above is NOT stored on the Chordie server. The original song is hosted at www.guitaretab.com. Chordie works as a search engine and provides on-the-fly formatting. Chordie does not index songs against artists'/composers' will. To remove this song please click here.

This song is displayed as text-only. Transposing and tuning is only available for chordpro-songs.

Login - add to songbook

Rating click stars to rate

Layout
Accuracy

SHARE PAGE  




You need to log in to post comments