Guitar Tabs, Chords and Lyrics


War   Misc. Unsigned Bands



Artist : Assume The Position
Song : War
Tabbed by an A.T.P guitarist - Pubert Biggins

This is all i'm giving at the moment.......

Intro:
----------------------------------
----------------------------------
-4-x-x-x-x-x-x-x-x-x-x-x-x--5-----
-4-x-x-x-x-x-x-x-x-x-x-x-x--5-----
-2-x-x-x-x-x-x-x-x-x-x-x-x--3-----
----------------------------------

----------------------------------
----------------------------------
----------------------------------
-4-x-x-x-x-x-x-x-x-x-x-x-x--5-----
-4-x-x-x-x-x-x-x-x-x-x-x-x--5-----
-2-x-x-x-x-x-x-x-x-x-x-x-x--3-----

----------------------------------
----------------------------------
----------------------------------
-2-x-x-x-x-x-x-x-x-x-x-x-x--2-----
-2-x-x-x-x-x-x-x-x-x-x-x-x--2-----
-0-x-x-x-x-x-x-x-x-x-x-x-x--0-----

----------------------------------
----------------------------------
----------------------------------
-4-4-4-4-4-4-4-4-5-5-5-4-4-4------
-4-4-4-4-4-4-4-4-5-5-5-4-4-4------


Important: The song above is NOT stored on the Chordie server. The original song is hosted at www.guitaretab.com. Chordie works as a search engine and provides on-the-fly formatting. Chordie does not index songs against artists'/composers' will. To remove this song please click here.

This song is displayed as text-only. Transposing and tuning is only available for chordpro-songs.

Login - add to songbook

Rating click stars to rate

Layout
Accuracy

SHARE PAGE  




You need to log in to post comments