Guitar Tabs, Chords and Lyrics


Suicidal Princess   Misc. Unsigned Bands



Were a new band, were have a single cd coming out soon.
Our names Lithium
this guy: on lead guitar           \
Him: on bass and word sayer guy     > Alian ant farm gave me this idea 
The other dude: back guitar        /

play the hole song 3 times

|------------------------------------------|
|----3----3----3----3----3-----------------|
|---2----2----2----2----2------------------|
|-0----0----0----0----0--------------------|
|------------------------------------------|
|------------------------------------------|


|------------------------------------------|
|-----3----3----3----3----3----------------|
|---0----0----0----0----0------------------|
|------------------------------------------|
|-3----3----3----3----3--------------------|
|------------------------------------------|


|------------------------------------------|
|----3----3----3----3----3-----------------|
|---2----2----2----2----2------------------|
|-0----0----0----0----0--------------------|
|------------------------------------------|
|------------------------------------------|


|------------------------------------------|
|-----3----3----3----3----3----------------|
|---0----0----0----0----0------------------|
|------------------------------------------|
|-3----3----3----3----3--------------------|
|------------------------------------------|


|------------------------------------------|
|-----3----3----3----3----3----------------|
|---0----0----0----0----0------------------|
|------------------------------------------|
|------------------------------------------|


Important: The song above is NOT stored on the Chordie server. The original song is hosted at www.guitaretab.com. Chordie works as a search engine and provides on-the-fly formatting. Chordie does not index songs against artists'/composers' will. To remove this song please click here.

This song is displayed as text-only. Transposing and tuning is only available for chordpro-songs.

Login - add to songbook

Rating click stars to rate

Layout
Accuracy

SHARE PAGE  




You need to log in to post comments