Guitar Tabs, Chords and Lyrics


Say Something Interesting   Misc. Unsigned Bands



www.socialimpact.cjb.net
********************************
 *                              *
 *  Say Something Interesting-  *
 *        -Social Impact        *  
 *                              *
 ********************************
x=Palm Muted X2=played twice

(This part is actually bass, playable with guitar)
Intro/first verse
-----------------------------
-----------------------------
-----------------------------
-----------------------------
--3(x3)-----1(x3)------------
------3(x3)-----1(x3)--------(X7)

"Did you get..." 
----------------------------
----------------------------
-xxxxxxxx----xxxxxxxx-------
-33333333----55555555-------
-33333333----55555555-------
-11111111x2--33333333x2----- (X2)

Chorus
--------------------------
--------------------------
-555-------333------------
-555--555--333--333-------
-333--555--111--333-------
------333-------111------- (X4)

Go back to Intro (only play four times)

Solo
-------------------------
-------------------------
-------------------------
-555--33-----555---------
-555-----33--555-----55--


Important: The song above is NOT stored on the Chordie server. The original song is hosted at www.guitaretab.com. Chordie works as a search engine and provides on-the-fly formatting. Chordie does not index songs against artists'/composers' will. To remove this song please click here.

This song is displayed as text-only. Transposing and tuning is only available for chordpro-songs.

Login - add to songbook

Rating click stars to rate

Layout
Accuracy

SHARE PAGE  




You need to log in to post comments