Guitar Tabs, Chords and Lyrics


123 Fuck   Misc. Unsigned Bands



http://www.vaginalincest.de

Band: Vaginal Incest
Song: 123 Fuck

Tabber: John Cukras
Email: riffreaper@yahoo.com

Tuning: normal

Riff 1:
E----------------------------------------------------------------
B----------------------------------------------------------------
G------------------------9-10-9-8--------------------------------
D----------------------------------------------------------------
A--------7~---------7~---------------------------7~-----------7~-
E-3-000------3-000------------------3-000000000-------3-00000----

It's not really a different riff, but they parts are different
so I seperated them.

E-------------------------------------------------------------------------------------------------------------
B-------------------------------------------------------------------------------------------------------------
G-----------------------9-10-9-8-------------------------------------------------9-10-9-8---------------------
D--------9/3--------------------------------------------9/5-------------------------------------------------2-
A--------7/1--------7~-------------------7~--------5-7--7/3--------------5----------------------7~--5555555-2-


Important: The song above is NOT stored on the Chordie server. The original song is hosted at www.guitaretab.com. Chordie works as a search engine and provides on-the-fly formatting. Chordie does not index songs against artists/composers will. To remove this song please click here.

This song is displayed as text-only. Transposing and tuning is only available for chordpro-songs.

Login - add to songbook

Rating click stars to rate

Layout
Accuracy

SHARE PAGE  




You need to log in to post comments