Guitar Tabs, Chords and Lyrics


Let It Pass  Misc. Unsigned Bands

[A-]Shallow laughter seeks the[C] halls as desperate me[D]asures search them all              [A-]
[A-]On the ground the dew soak[C]s in...as the men comm[D]it they're sins      [A-]
(Hardcore riff)
[A-]In the sky the clou[C]ds fly high. All the peop[D]le search for sigh. [A-]
[A-]Happy faces circle [C]sad, as the boy [D]screams for dad.[A-]

(hardcore)
[G#]ohh[E-]hoh[A] le[B]t it [A4]pass, o[G#]hhh[E-]oh [A]let [B]it p[A4]ass

(soft)
[A-]Hot water soon [C]turns hard
[D]heavens light...turns [A-]dark.
[A-]Blank paper stares [C]at the writer,
[D]the writer's cau[A-]ght in his dreams.


Solo (Acoustic in background)
(this goes through acoustic chorus till 3 RIFFS)
e----/5-5-5h8-8-8------------------/5-5-5H8-8-8------------8/10-8-8/10-8)-|
B----------------5h8-8-8-8h10-10-10------------5H8-8-8-8H10---------------|
G-------------------------------------------------------------------------|
D-------------------------------------------------------------------------|
A-------------------------------------------------------------------------|
E-------------------------------------------------------------------------|
e---10b---8-8-8-10b-8-8-8-10b-8-8-8---:-----------|
B-------------------------------------------------|
G-------------------------------------------------|
D-------------------------------------------------|
A-------------------------------------------------|
E-------------------------------------------------|

(Ending)
e-8/10-8------------------------------------0----------------------------|
B---------8/10-8-6/8-6-5/6-6-3/5-3-1/3-1------1--------------------------|
G------------------------------------------------2-----------------------|
D---------------------------------------------------2--------------------|
A------------------------------------------------------0-----------------|
E---------------------------------------------------------0--------------|


b-bend
/-slide
:||-repeat 1 time

Important: The song above is NOT stored on the Chordie server. The original song is hosted at www.guitaretab.com. Chordie works as a search engine and provides on-the-fly formatting. Chordie does not index songs against artists'/composers' will. To remove this song please click here.

Text color:
Chord color:
Chord grids: 
Font size:    
Page size: 

A A4 B C D G#
variations - click chord images

Login - add to songbook

Transpose chords

Tuning

Rating click stars to rate

Layout
Accuracy

SHARE PAGE  




You need to log in to post comments