Guitar Tabs, Chords and Lyrics


Alphabet Soup  Misc. Unsigned Bands

e-----------------------------------------e


b-----------------------------------------b


g--7-7-6-------5---7-7-6------------------g

d--------5-7-7---5-------5-7-7-4-7--------d
a-----------------------------------------a
e-----------------------------------------e
e-----------------------------------------e
b-----------------------------------------b
g--7-7-6-------5-------5-------------(7)--g
d--------5-7-7---5-7-7---5-7-7-4-7--------d
a-----------------------------------------d
e-----------------------------------------e
e----------------e
b----------------b
g-7-7-6----------g
d-------5--------d
a----------------a
e----------------a
e-------------------------------------------e
b-------------------------------------------b
g--7-p-6----------------7-p-6---------------g
d--------4-h-5-h-7-p-4--------4-h-5-h-7-----d
a-------------------------------------------a
e-------------------------------------------e
I Shoulda k[D]nown, by the a[A]rc of the empty wine glass
I shoulda k[D]nown, cos you s[A]tep on, dont walk over cracks
looking over my Sh[D]oulder, to see you lo[A]oking back over yours
but you were paying the fe[D]rryman, even a[A]fter Chris said dont..
Pre Chorus:
but youre no[F#m]t Maud Gonne, not Maud Gonne
no youre n[E]ot Maud Gonne, not Maud Gonne
and youre [F#m]not Maud Gonne, not Maud Gonne
no youre n[E]ot Maud Gonne, not Maud Gonne...


Chorus:
youre n[D]ot Maud Gonne...but then again neither was s[A]he
the only one tal[D]kin now, is my alphabet so[A]up
i say you like chi[F#m]ldren, but you couldnt eat a w[E]hole one
and the only one ta[D]lkin now, is my alphabet so[A]up...
and hes on a lo[A]op...

Verse: (chords as above)
I shoulda known, but i only caught a glimpse,
I shoulda known, a beautiful red wine stained glimpse,
i was other peoples children, i could always be sent home,
in front of some elses blue screen, for someone elses show,

Pre Chorus & Chorus: (as above)

Ending:
[D]...my alphabet so[A]up...yeah hes on a lo[D]op
...my alphabet So[A]up...yeah hes on a lo[D]op
...my alphabet so[A]up...(he says..oh wait..whats that, whats that he says)

[D5]Whats that youre sayin to me [C5]       [A5]
[A5]tomato coated spaghetti?  (play x4, distorted if ya like!)

(5th time round it goes:)
[D]whats that youre sayin to me
[E]tomato coated spaghetti?
[D]Its gonna be okay....(till fade)

And thats it!!! lovely wee song...
any questions/comments...send to paul_mackle@hotmail.com.

Important: The song above is NOT stored on the Chordie server. The original song is hosted at www.guitaretab.com. Chordie works as a search engine and provides on-the-fly formatting. Chordie does not index songs against artists'/composers' will. To remove this song please click here.

Text color:
Chord color:
Chord grids: 
Font size:    
Page size: 

A A5 C5 D D5 E F#m
variations - click chord images

Login - add to songbook

Transpose chords

Tuning

Rating click stars to rate

Layout
Accuracy

SHARE PAGE  




You need to log in to post comments