Guitar Tabs, Chords and Lyrics


Kash  Misc. Unsigned Bands

e-----------------------------------------|


b------0-0-0-0-0------1-1-1-1-1-----------|


g----2--2-2-2-2-2---2--2-2-2-2-2----------|

d---2-2--2-2-2-2---3-3--3-3-3-3-----------|
a--0--------------3-----------------------|
E-----------------------------------------|
[Am]door jitna bhi tum mujh [G]se paas t[F]ere main [G]
[Am]ab to aadat si hai mujh k[G]o aise jee[F]nain main [G]
[Am]zindagi se koi s[G]hikwa hi na[F]hin hai [G]
[Am]ab to zinda hoon main is n[G]eele asm[F]an main [G]
e------------------------1-1-1-1----------------------------------|
b--------1-1-1-1---2-2-2-2-2-2-2----------------------------------|
g--2-2-2-2-2-2-2---3-3-3-3-3-3-3----------------------------------|
d--2-2-2-2-2-2-2---3-3-3-3-3-3-3----------------------------------|
a-----------------------------------------------------------------|


Basically you hold Am* and F*.

[Am]chahat aisi hai yeh t[G]eri barhti j[F]aye [G]
[Am]aahat aisi hai yeh t[G]eri mujh ko [F]sataye [G]
[Am]yaaden gehri hain i[G]tni dil doob [F]jaaye [G]
[Am]aur ankhon main yeh g[G]hum num ban j[F]aayen  [G]
Am* F G
aahehhaaaeeeaae hooaa hoooaaaaa hooaeoe

e----------------------------------------------------------------------------------------|
b--5-6-5-5-5-3-1-0-0-0-0-1-0--1-1-1-1\3-1-----5-6-5-5-5-8-10-8-10h12-10-8-8-8-6h8-6-5-3--|
g----------------------------------------------------------------------------------------|
d----------------------------------------------------------------------------------------|

[Am]ab to  aadat si hai mujh [G]ko aise j[F]eenain main  [G]
Am* G F
aahaahaaaaeeee hooeeeee hoooooeeee hooee
Am* F G
aahaaaahaaaeee aaahaaaaaa hoooee hooee (Am)
(F) (G) ( ) shows power chords.
sabhi yaaden hain sabhi baaten hain haaannn
[Am]bhula do unhain mita do [F]unhain a[G]aaannn

I think it is more than enough. Just try it and have fun.
For comments write to me at
Ali_thesaint@yahoo.com

Important: The song above is NOT stored on the Chordie server. The original song is hosted at www.guitaretab.com. Chordie works as a search engine and provides on-the-fly formatting. Chordie does not index songs against artists'/composers' will. To remove this song please click here.

Text color:
Chord color:
Chord grids: 
Font size:    
Page size: 

Am F G
variations - click chord images

Login - add to songbook

Transpose chords

Tuning

Rating click stars to rate

Layout
Accuracy

SHARE PAGE  




You need to log in to post comments