Guitar Tabs, Chords and Lyrics


Toungues   Misc. Unsigned Bands



Pepper - Toungues


intro/verse
e-------------------------------------------------------------------|
b---------7---------------------------------------------------------|
g---3-----8-----3-------8-------------------------------------------|
d---4-----8-----6-------9-------------------------------------------|
a---4-----6-----6-------9-------------------------------------------|
E---2-----------4-------7-------------------------------------------|


PreChorus "only thing i've ever loves was..."
e--------------------------------------------------------------|
b--------------------------------------------------------------|
g--------------------------------------------------------------|
d--8-----------------------------------------------------------|
a--8-----------------------------------------------------------|
E--6-----------------------------------------------------------|

Chorus    "does she know my name...."
e------------------------------------------------------------|
b------------------------------------------------------------|
g--3----8----------------------------------------------------|
d--3----8----------------------------------------------------|
a--1----6----------------------------------------------------|
e------------------------------------------------------------|
repeat


Post chorus
e---------------------------------------------------------------|
b---------------------------------------------------------------|
g---------------------------------------------------------------|
d---8----11-----4------6----------------------------------------|
a---8----11-----4------6----------------------------------------|
E---6----9------2------4----------------------------------------|

Ending
e----------------        -------------------------------------|
b----------------        -------------------------------------|
g----------------        --4----3-----------------------------|
d--9----8----4---  or    --4----3---4-------------------------|
a--9----8----4---        --2----1---4-------------------------|


Important: The song above is NOT stored on the Chordie server. The original song is hosted at www.guitaretab.com. Chordie works as a search engine and provides on-the-fly formatting. Chordie does not index songs against artists'/composers' will. To remove this song please click here.

This song is displayed as text-only. Transposing and tuning is only available for chordpro-songs.

Login - add to songbook

Rating click stars to rate

Layout
Accuracy

SHARE PAGE  




You need to log in to post comments