Guitar Tabs, Chords and Lyrics


Pain And Destruction   Misc. Unsigned Bands



Bagage is a new band who will rule the world

A -------------------------------------------------------------------|
B -------------------------------------------------------------------|
C -------------------------------------------------------------------|
D ---6-6-6-6-6-6--9-9-9-9-9-9--14-14-14-14-14-14--11-11-11-11-11-11--|
E ---6-6-6-6-6-6--9-9-9-9-9-9--14-14-14-14-14-14--11-11-11-11-11-11--|
F ---4-4-4-4-4-4--7-7-7-7-7-7--12-12-12-12-12-12---9--9--9--9--9--9--| X4


A -------------------------------------------------------------------|
B -------------------------------------------------------------------|
C -------------------------------------------------------------------|
D --11-11-11-11-11-11--14-14-14-14-14-14--7-7-7-7-7-7--4-4-4-4-4-4---|
E --11-11-11-11-11-11--14-14-14-14-14-14--7-7-7-7-7-7--4-4-4-4-4-4---|
F ---9--9--9--9--9--9--12-12-12-12-12-12--5-5-5-5-5-5--2-2-2-2-2-2---| X2


A -------------------------------------------------------------------|
B -------------------------------------------------------------------|
C -------------------------------------------------------------------|
D ---6-6-6-6-6-6--9-9-9-9-9-9--14-14-14-14-14-14--11-11-11-11-11-11--|
E ---6-6-6-6-6-6--9-9-9-9-9-9--14-14-14-14-14-14--11-11-11-11-11-11--|


Important: The song above is NOT stored on the Chordie server. The original song is hosted at www.guitaretab.com. Chordie works as a search engine and provides on-the-fly formatting. Chordie does not index songs against artists'/composers' will. To remove this song please click here.

This song is displayed as text-only. Transposing and tuning is only available for chordpro-songs.

Login - add to songbook

Rating click stars to rate

Layout
Accuracy

SHARE PAGE  




You need to log in to post comments