Guitar Tabs, Chords and Lyrics


Palm   Misc. Unsigned Bands



This Band is a newly formed band by Alex(me), Steven, and Chelsea. We are still looking 
a drummer though. Now we are working on our first song!
This song is right on the money because i wrote it!   Friday 8/20/04

Intro:        Pre Corus:
E---------]---------------------------------------------------------|
B---------]---------------------------------------------------------|
G---------]---------------------------------------------------------|
D---2~~---]---0-00-00-20----0-00-00-30------------------------------|
A---------]---------------------------------------------------------|
E---------]---------------------------------------------------------|

Corus:
E-------------------------------------------------------------------|
B-------------------------------------------------------------------|
G-------------------------------------------------------------------|
D-------------------------------------------------------------------|
A-----------------------0-00-00---3-33-33---------------------------|
E---0-00-00---3-33-33-----------------------------------------------|

Solo:
E-------------------------------------------------------------------|
B-------------------------------------------------------------------|
G---------------------0-----]-----202020----202020------------------|
D---202020-----202020-----x2-------------0---------2----------------|
A----------0----------------]---------------------------------------|
E-------------------------------------------------------------------|

E-------------------------------------------------------------------|
B-------------------------------------------------------------------|
G------------------------]--------------------0---------------------|
D---202020----202020-----]---202020----202020-----x2----------------|
A----------0---------2---]----------0-------------------------------|
E-------------------------------------------------------------------|


Outro Chord:
E-------------|
B-------------|
G------0------|
D------0------|
A------10-----|


Important: The song above is NOT stored on the Chordie server. The original song is hosted at www.guitaretab.com. Chordie works as a search engine and provides on-the-fly formatting. Chordie does not index songs against artists'/composers' will. To remove this song please click here.

This song is displayed as text-only. Transposing and tuning is only available for chordpro-songs.

Login - add to songbook

Rating click stars to rate

Layout
Accuracy

SHARE PAGE  




You need to log in to post comments