Guitar Tabs, Chords and Lyrics


Im A Sucker For Fakes  Misc. Unsigned Bands

[F#]B    [244322]799877
B7 797877
[C#m7]Em   [446654]779987

e|------------|---------|----------|-----------------|
B|------4-----|-----2---|--------4-|--------0--------|
G|--------4---|-------4-|----------|-----------------|
D|----4-------|---4-----|----4----4|----4-----(4)----|
A|-2----------|-0-------|4---------|-----------------|
E|------------|---------|----------|3----------------|x4

"I'll classify every word out of your lips...."

Held as the [E]king of [F#]decievers and cheats
[B]You've got a lo[B7]t to l[D#mi7]earn
More best friends to [C#mi7]burn
More [E]malignant [Em]lies to conju[B]re
I'm down and [D#mi7]out for now
But till the [C#mi7]day you die
[E]I will haunt your [Em]dreams (oh oh.)

e|------------|---------|----------|-----------------|
B|------4-----|-----2---|--------4-|--------0--------|
G|--------4---|-------4-|----------|-----------------|
D|----4-------|---4-----|----4----4|----4-----(4)----|
A|-2----------|-0-------|4---------|-----------------|
E|------------|---------|----------|3----------------|x4

"When you decide to paint your white picket fence..."
Smother the true [E]grace of your tainted [F#]life
[B]You've got more[B7] guts [D#mi7]to churn
An eternity to [C#mi7]burn
You'r[E]e about as[Em] innocent as canc[B]er
I'm down and [D#mi7]out for now
But till the [C#mi7]day you die
[E]I will haunt your [Em]dreams ...


BRIDGE
I hope your b[C#m7]reathing doesn't come [E]easy
And I [C#m7]pray to God I'm all you [E]dream
Hope you [E]feel my touch
H[C#m7]ear my voice
[E]Taste my lips with every sip of noise
[C#m7]Save your tears [E]Don't apologize
[C#m7]All you'll hear is [E]goodbye
(No strumming)
Until you're a
e|------------|---------|----------|-----------------|
B|------4-----|-----2---|--------4-|--------0--------|
G|--------4---|-------4-|----------|-----------------|
D|----4-------|---4-----|----4----4|----4-----(4)----|
A|-2----------|-0-------|4---------|-----------------|
E|------------|---------|----------|3----------------|

.........memory

ENJOY!!! =D

Important: The song above is NOT stored on the Chordie server. The original song is hosted at www.guitaretab.com. Chordie works as a search engine and provides on-the-fly formatting. Chordie does not index songs against artists'/composers' will. To remove this song please click here.

Text color:
Chord color:
Chord grids: 
Font size:    
Page size: 

B B7 C#m7 E Em F#
variations - click chord images

Login - add to songbook

Transpose chords

Tuning

Rating click stars to rate

Layout
Accuracy

SHARE PAGE  




You need to log in to post comments