Guitar Tabs, Chords and Lyrics


Boston   Misc. Unsigned Bands



my personal favorite song by rejected radio, Boston! not to mention there first time 
on a tab site ever! enjoy!!!!

intro
pull off each note so it rings open.
E--0--4p-0-0--5p-0-0--7p-0-0--5p-0-0--------4-|x intro lead
B---------------------------------------------|
G---------------------------------------------|
D---------------------------------------------|
A---------------------------------------------|
E---------------------------------------------|

play this for rythem over lead intro.
let each chord ring for appropriate amount of time.
(whatever that is)
E----------------------------------------| 4x intro
B----------------------------------------|
G----------------------------------------|
D---2--------7---------------------------|
A---2--------7---------------------------|
E---0--------5---------------------------|
The rest of the song is play like this.
E----------------------------------------|
B----------------------------------------|
G----------------------------------------|
D---2-2-2-2-2-2-2-2--7-7-7-7-7-7-7-7-----|
A---2-2-2-2-2-2-2-2--7-7-7-7-7-7-7-7-----|
E---0-0-0-0-0-0-0-0--5-5-5-5-5-5-5-5-----|
continued...
E----------------------------------------|
B----------------------------------------|
G--7-7-7-7-----------9-9-9-9-9-9-9-9-----|
D--7-7-7-7--7-7-7-7--9-9-9-9-9-9-9-9-----|
A--5-5-5-5--7-7-7-7--7-7-7-7-7-7-7-7-----|
E-----------5-5-5-5----------------------|
during the chorus the intro lead part is played
but much faster.


Important: The song above is NOT stored on the Chordie server. The original song is hosted at www.guitaretab.com. Chordie works as a search engine and provides on-the-fly formatting. Chordie does not index songs against artists'/composers' will. To remove this song please click here.

This song is displayed as text-only. Transposing and tuning is only available for chordpro-songs.

Login - add to songbook

Rating click stars to rate

Layout
Accuracy

SHARE PAGE  




You need to log in to post comments