Guitar Tabs, Chords and Lyrics


Outlaw   Misc. Unsigned Bands



----------------------------------------------------------------------------
                      **Outlaw - Blackened Star**
----------------------------------------------------------------------------


PLEASE NOTE
This file is the my own work. You may only use this file for private study, scholarship, or research.


Hope you like it i made it :)

Tabbed by Derek
email me with your comments crzybmxer79@netscape.net

h-hammer on
p-pull off
s-slide
/-strum up
\-strum back
v-virato

e-------------------------------------------------------------------|
B-------------------------------------------------------------------|
G-------------------------------------------------------------------|
D---------------2h4p2---2v---4s7-6-4-2-2h4p2---2--------------------|
A------0h2- 2h4-------4----------------------4---4-2----------------|
E--0h2--------------------------------------------------------------|

e----------------------------------------------------------------------|
B----------------------------------------------------------------------|
G----------------------------------------------------------------------|
D----------------2h4p2---2v-2-2h4p2----2-------------------------------|
A------0h2-2h4---------4-------------4---4--2------0-------------------|


Important: The song above is NOT stored on the Chordie server. The original song is hosted at www.guitaretab.com. Chordie works as a search engine and provides on-the-fly formatting. Chordie does not index songs against artists'/composers' will. To remove this song please click here.

This song is displayed as text-only. Transposing and tuning is only available for chordpro-songs.

Login - add to songbook

Rating click stars to rate

Layout
Accuracy

SHARE PAGE  




You need to log in to post comments