Guitar Tabs, Chords and Lyrics


All My Friends   Misc. Unsigned Bands



Say Anything is...
Max Bemis (guitar, vocals, etc.)
Coby Linder (Drums)
Kevin Seaton (Bass)
Casper Adams (Guitar).

Say Anything's debut, a punk rock musical, titled "Say Anything Is A Real Boy."
will be out August 3rd, 2004 on Doghouse Records. The album was produced by Tim O'Heir
(Superdrag, Dinosaur Jr., Sebadoh, All American Rejects) and Stephen Trask (Hedwig and
The Angry Inch) http://www.sayanythingmusic.com
---------------------------------------------------------------------------------
"All My Friends" by Say Anything

e |-----------------------------|
B |-----------------------------|
G |---7-------------------------|
D |---7--5--9--7--5-------------| 
A |---5--5--9--7--5-------------|
E |------3--7--5--3-------------|

e |-----------------------------------------------------------|
B |-----------------------------------------------------------|
G |--7--------------------------------------------------------|
D |--7-7--5--7------------------------------------------------|
A |--5-7--5--7------------------------------------------------|


Important: The song above is NOT stored on the Chordie server. The original song is hosted at www.guitaretab.com. Chordie works as a search engine and provides on-the-fly formatting. Chordie does not index songs against artists'/composers' will. To remove this song please click here.

This song is displayed as text-only. Transposing and tuning is only available for chordpro-songs.

Login - add to songbook

Rating click stars to rate

Layout
Accuracy

SHARE PAGE  




You need to log in to post comments