Guitar Tabs, Chords and Lyrics


You Die   Misc. Unsigned Bands



this is another song by my band!

you know
Tuning drop d

[------------------------------------]
[0-0-8-9/7---------------------------]
[------------------------------------]
[------------------------------------]         x5
[------------------------------------]
[-------------0-0-2/7--0-0-2/9-------]

This is the main chorus

[------------------------------------]
[------------------------------------]
[------------------------------------]   x6
[------------------------------------]
[------------------------------------]
[-1-2/5--1-2/6--8h9p7----------------]


this part is really cool

[---------------------------]
[---------------------------]
[1--------1-------1---------]
[1--------1-------1---------]
[1--------1-------1---------]
[1--------1-------1---------]
pm all of this 1 above



outro

[------------------------------------]
[------------------------------------]
[------------------------------------]
[------------------------------------]
[------------------------------------]


Important: The song above is NOT stored on the Chordie server. The original song is hosted at www.guitaretab.com. Chordie works as a search engine and provides on-the-fly formatting. Chordie does not index songs against artists'/composers' will. To remove this song please click here.

This song is displayed as text-only. Transposing and tuning is only available for chordpro-songs.

Login - add to songbook

Rating click stars to rate

Layout
Accuracy

SHARE PAGE  




You need to log in to post comments