Guitar Tabs, Chords and Lyrics


Hells Calling   Misc. Unsigned Bands



intro    #1 IT IS OUR GARAGE BAND WE DO NOT HAVE A RECORD DEAL
------------------------|
------------------------|
------------------------|
---------2-0------------|
----4-0-------2-0-------|
-2----------------------|



------------------------------|  RIFF
------------------------   #1-|
------------------------   #2-|
---------2-0------------   #3-|
----4-0-------2-0-------   #2-|
-0----------------------------|  LAST NOTE EGNOR THE OPEN NOTE



------------------------|
------------------------|
------------------------|
---------2-0------------|
----4-0-------2-0-------|


Important: The song above is NOT stored on the Chordie server. The original song is hosted at www.guitaretab.com. Chordie works as a search engine and provides on-the-fly formatting. Chordie does not index songs against artists'/composers' will. To remove this song please click here.

This song is displayed as text-only. Transposing and tuning is only available for chordpro-songs.

Login - add to songbook

Rating click stars to rate

Layout
Accuracy

SHARE PAGE  




You need to log in to post comments