Guitar Tabs, Chords and Lyrics


Simple Thoughts   Misc. Unsigned Bands



5 and dime is a band of 13 year olds from red wing, minnesota.
vocals/lead guitar:Sam brady
bass guitar:Patrick orr
Drums:Danny bell

Intro:
e--------------------------------------------|
b--------------------------------------------|
g----------------------------------  repeat--| 3x
d--------------------------------------------|
a-5-55875----------5-55875-------------------|
e--------6-6666888--------6-6666555----------|

e----------------------------------|
b----------------------------------|
g----------------------------------|
d----------------------------------|
a-5-55875--------------------------|
e--------6-6666888-5-55556-6668888-|

Verse:
e---------------------------------|
b---------------------------------|
g---------------------------------|
d---------------------------------|
a-5-5-5-5-8-8---------------------|
e-------------5-5-6-6-6-6-5-5-5-5-|

e-----------------------------------------------------|
b-----------------------------------------------------|
g-----------------------------------------------------|
d-------------------------------- repeat whole verse--| 4x
a-5-5-5-5-8-8-----------------------------------------|
e-------------5-5-6-6-6-6-8-8-8-8---------------------|

Chorus:
e---------------------------------------------------|
b---------------------------------------------------|
g----5----------------5-----------------------------|
d-7--x-------------7--x--------5555  repeat chorus--| 4x
a-5--8-7-8-8887777-5--8-7-8-888xxxx-----------------|


Important: The song above is NOT stored on the Chordie server. The original song is hosted at www.guitaretab.com. Chordie works as a search engine and provides on-the-fly formatting. Chordie does not index songs against artists'/composers' will. To remove this song please click here.

This song is displayed as text-only. Transposing and tuning is only available for chordpro-songs.

Login - add to songbook

Rating click stars to rate

Layout
Accuracy

SHARE PAGE  




You need to log in to post comments