Guitar Tabs, Chords and Lyrics


Ocd   Misc. Unsigned Bands



new artist
Natural Effect
O.C.D
D tuning
()=palm mute

Verse
----------------------------------------------------------------|
----------------------------------------------------------------|
----------------------------------------------------------------|
---9/10-7-7-7-7---3/5-2-2-2-2---9/10-7-7-7-7---3/5-2-3-2-3-5----|
-0--------------0-------------0--------------0------------------|
----------------------------------------------------------------|

Bridge
----------------------------------------------------|
----------------------------------------------------|
----1112--9999-----5/7--44/5/4----------------------|
-0--9/10--7777--0--3/5--22/3/2----------------------|
-0--9/10--7777--0--3/5--22/3/2----------------------|
-0--9/10--7777--0--3/5--22/3/2----------------------|

PreChorus
--------------------------------------------------------------|
--------------------------------------------------------------|
--------------------------------------------------------------|
-(0000)-2-(00)-3-(00)-5-(0)-7-(0)-7/8-------------------------|
-(0000)-2-(00)-3-(00)-5-(0)-7-(0)-7/8-------------------------|
-(0000)-2-(00)-3-(00)-5-(0)-7-(0)-7/8-------------------------|

Chorus
------------------------------------------------------------|
------------------------------------------------------------|
------------------------------------------------------------|
-0000--2--00--3--00--5--0--7--0--7/8------------------------|
-0000--2--00--3--00--5--0--7--0--7/8------------------------|
-0000--2--00--3--00--5--0--7--0--7/8------------------------|

Outro
-------------------------------------------------------------------------0---|
-------------------------------------------------------------------------3---|
-------------------------------------------------------------------------2---|
-------------------------------------0-2-0-3-0-5-0-7-0-8-0-7-0-5-3-----3-0---|
-------------------------------------0-2-0-3-0-5-0-7-0-8-0-7-0-5-3-X4--3-----|


Important: The song above is NOT stored on the Chordie server. The original song is hosted at www.guitaretab.com. Chordie works as a search engine and provides on-the-fly formatting. Chordie does not index songs against artists'/composers' will. To remove this song please click here.

This song is displayed as text-only. Transposing and tuning is only available for chordpro-songs.

Login - add to songbook

Rating click stars to rate

Layout
Accuracy

SHARE PAGE  




You need to log in to post comments