Guitar Tabs, Chords and Lyrics


Untitled   Misc. Unsigned Bands



This is a song my band and i have been working on.
Its pretty easy but fun to play. Its in standard tuning.

Verse 1&2
guitar 1
--------------------------------------------------------------------|
--------------------------------------------------------------------|
--------------------------------------------------------------------|
------9--------4---------6-----------1-1-----2----------------------|
---7-----0--2----0---4-----0-~~~~~----------------------------------|
--------------------------------------------------------------------|

guitar 2
----------------------------------------------------------------------|
----------------------------------------------------------------------|
----------------------------------------------------------------------|
---9-x------4-x-----6-x------2-x-x-x----------------------------------|
---7-x--0---2-x--0--4-x--0---0-x-x-x----------------------------------|
----------------------------------------------------------------------|

chorus
-----------------------------------------------------------------------|
-----------------------------------------------------------------------|
-----------------------------------------------------------------------|
-----------------------------------------------------------------------|
-14-14-x-x-x-x-14-14-14-9-9x-x-x-x-11-11-x-x-x-x-11-11-7-7x-x-x-x-7-9--|


Important: The song above is NOT stored on the Chordie server. The original song is hosted at www.guitaretab.com. Chordie works as a search engine and provides on-the-fly formatting. Chordie does not index songs against artists'/composers' will. To remove this song please click here.

This song is displayed as text-only. Transposing and tuning is only available for chordpro-songs.

Login - add to songbook

Rating click stars to rate

Layout
Accuracy

SHARE PAGE  




You need to log in to post comments