Guitar Tabs, Chords and Lyrics


Shes Undefined   Misc. Unsigned Bands



tHIS IS THE SOLO FOR A BAND CALLED X-IT WHOME EVERY1 LUVS IN OUR TOWN!!
altho this is just
guitar 1 playin, bcus i no the guy.

B=BEND UP AND DOWN
h= hammer down after playin the note before.
e|------------------------------------------------|
B|------------------------------------------------|
G|------------------------------------------------|
D|----0H20h20h20h2-----0h20h20h20h2-4h5-4---------|        x2
A|-----------------0-2----------------------------|
E|------------------------------------------------|

e|---------------------------------------------------------------|
B|---------------------------------------------------------------|
G|----------------------------7-7-0-7-B5--7-7-0-7-B5--7-7-0-7----|B5
D|----2--2-2-3--3-3--4--4-4---7-7-5-7-----7-7-0-7-----7-7-5-7----|
A|---------------------------------------------------------------|
E|---------------------------------------------------------------|


e|--------------------------------------|
B|--------------------------------------|
G|--------------------------------------|
D|7-5-7---------------------------------|
A|------5-7-5-7-5--7--5-----------------|


Important: The song above is NOT stored on the Chordie server. The original song is hosted at www.guitaretab.com. Chordie works as a search engine and provides on-the-fly formatting. Chordie does not index songs against artists'/composers' will. To remove this song please click here.

This song is displayed as text-only. Transposing and tuning is only available for chordpro-songs.

Login - add to songbook

Rating click stars to rate

Layout
Accuracy

SHARE PAGE  




You need to log in to post comments