Guitar Tabs, Chords and Lyrics


I Was Born   Misc. Unsigned Bands



6dnp is a indie rock band out of jax Fla and this is a song of thrir LP
INTRO/let it ring(play chord let ring for 2 measures then play the next)
[--------------------------------------------]
[--------------------------------------------]
[--------------------------------------------]
[--7-------7--------7------------------------]
[--5-------5--------5------7-------9-------5-]
[--------------------------5-------7-------3-]

INTELUDE/strum the rythm
[------------------]
[------------------]
[------------------]
[-7----------------]
[-5---7---9---5----]
[-----5---7---3----]

VERSE/palm mute
[-------------------]
[-------------------]
[-------------------]
[-7-----------------]
[-5----7----9----5--]
[------5----7----3--]

CHORUS
[------------------------]
[------------------------]
[------------------------]
[-77---------------------]
[-55-----77-----99-----55]
[--------55-----77-----33]

BRIDGE
[--------------------------------------------------------------------------]
[--------------------------------------------------------------------------]
[--------------------------------------------------------------------------]
[---7--7--------------------------------4--4-------------------------------]
[-55-55-55---7--7-----9--9-----5--5---55-55-55---4--4-----9--9--5555555-5-5]


Important: The song above is NOT stored on the Chordie server. The original song is hosted at www.guitaretab.com. Chordie works as a search engine and provides on-the-fly formatting. Chordie does not index songs against artists'/composers' will. To remove this song please click here.

This song is displayed as text-only. Transposing and tuning is only available for chordpro-songs.

Login - add to songbook

Rating click stars to rate

Layout
Accuracy

SHARE PAGE  




You need to log in to post comments