Guitar Tabs, Chords and Lyrics


I Was Wrong  Misc. Unsigned Bands

|-3----3----3----0-|


|-3----3----3----0-|


|-4----0----0----1-|

|-5----0----0----2-|
|-5----2----x----2-|
|-3----3----3----0-|
|-3--333-3--333-3--333-0--000-0--000-3--333-3--333-3--333-3--333-0-|
|-3--333-3--333-3--333-0--000-0--000-3--333-3--333-3--333-3--333-0-|
|-4--444-4--444-0--000-1--111-1--111-0--000-4--444-4--444-0--000-1-|
|-5--555-5--555-0--000-2--222-2--222-0--000-5--555-5--555-0--000-2-|
|-5------5------2------2------2------2------5------5------2------2-|
|-3------3------3------0------0------3------3------3------3------0-|
They've [G]never been wrong [E]before
Chorus 1:

G(bar) G E
I was wrong to believe
G(bar) G
That you were better than nothing
[E]Better than nothing

G(bar) G E
I was wrong to believe
G(bar) G
That you were better than nothing
[E]Better than nothing


Verse 2:
G(bar) G E G G(bar)
Your car crash habit just about killed me
I let you [G]drive me [E]round and round
G G(bar)
Until I fell asleep
G E G G(bar)
Out long expired memories remind me
Of W[G]hat it was l[E]ike before


Chorus 2(w/distortion):

G(bar) G5 E
I was wrong to believe
G(bar) G5
That you were better than nothing
[E]Better than nothing

G(bar) G5 E
I was wrong to believe
G(bar) G5
That you were better than nothing
[E]Better than nothing


Verse 3(w/distortion):

What I [G5]want from [E]you
Is [G5]something more than

You can give
[E]Say good bye

What I [G5]want from [E]you
Is [G5]something more than

You can give
[E]Say good bye


Third Chorus(Clean):
|------------------------------------------------------|
|-------------7-----------------------5-----4--------5-|
|-----4-----8------------10-------------6-------5----6-|
|---5-----9--------11-----------11--------7-------6--7-|
|-5-----9-------11----11-----11----11------------------|
|------------------------------------------------------|


Outro(W/distortion):
[G5]Feels like I've been running aw[E]ay.
[G5]Feels like I've been running aw[E]ay.

End on an E with:

[E]Better then nothing at all.

Important: The song above is NOT stored on the Chordie server. The original song is hosted at www.guitaretab.com. Chordie works as a search engine and provides on-the-fly formatting. Chordie does not index songs against artists'/composers' will. To remove this song please click here.

Text color:
Chord color:
Chord grids: 
Font size:    
Page size: 

E G G5
variations - click chord images

Login - add to songbook

Transpose chords

Tuning

Rating click stars to rate

Layout
Accuracy

SHARE PAGE  




You need to log in to post comments