Guitar Tabs, Chords and Lyrics


The Hills   Misc. Unsigned Bands



This is my band. We have one album out, it's called Wanted. We're on a local
record label.
----------------------------------------------------------------------------
			     The Hills - Wanted
----------------------------------------------------------------------------
Tabbed by:inbloom27
Email:inbloom27@sbcglobal.net

Tuning: EADGBe

listen to song for timings
                               Verse
e|--2---------3------------------------------------------------------------|
B|--3---2-----0------------------------------------------------------------|
G|--2---2-----0------------------------------------------------------------|
D|--0---2-----0----2-------------------------------------------------------|
A|------0-----2----2--3-2-0------------------------------------------------|
E|------------3----0-------------------------------------------------------|

                          Chorus/Solo Rhythm
e|-------------------------------------------------------------------------|
B|-------------------------------------------------------------------------|
G|-------------------------------------------------------------------------|
D|--7---5---3---2----------------------------------------------------------|
A|--7---5---3---2----------------------------------------------------------|
E|--5---3---1---0----------------------------------------------------------|

                  For Solo, Improv To What Sounds Right

                                  Ending
e|---2-------3------------------2-----------3~~~~~-------------------------|
B|---3---2---0------------------3---2~~~~~--0~~~~~-------------------------|
G|---2---2---0------------------2---2~~~~~--0~~~~~-------------------------|
D|---0---2---0---2--------------0---2~~~~~--0~~~~~--2~~~~~~~~--------------|
A|-------0---2---2--3-2-0-----------0~~~~~--2~~~~~--2~~~~~~~~--------------|
E|-----------3---0--------------------------3~~~~~--0~~~~~~~~--------------|
~ =Hold

Song Order:
Verse 8x
Chorus 4x
Feedback
Verse 8x
Chorus 4x
Solo and Rhythm 12x
Feedback
Ending 1x



Important: The song above is NOT stored on the Chordie server. The original song is hosted at www.guitaretab.com. Chordie works as a search engine and provides on-the-fly formatting. Chordie does not index songs against artists'/composers' will. To remove this song please click here.

This song is displayed as text-only. Transposing and tuning is only available for chordpro-songs.

Login - add to songbook

Rating click stars to rate

Layout
Accuracy

SHARE PAGE  




You need to log in to post comments