Guitar Tabs, Chords and Lyrics


Untitled  Misc. Unsigned Bands

e|-------------|


B|-------------|


G|-------------|    x4

D|-----6-8-10--|
A|-6-6-4-6-8---|
E|-4-4---------|
e|-------------|
B|-------------|
G|-------------| x2
D|-----4-6-8---|
A|-4-4---------|
E|-------------|
e|-------------|
B|-------------|
G|-------------| Continue from intro, stop at at the end of 'lying
D|-----4-6-8---| here tonight'
A|-4-4---------|
E|-------------|
[C#]I open my eyes
I try to see but I?m blinded by the w[E]hite light
I can?t r[C#]emember how
I can?t r[C#]emember why
I?m ly[E]ing here tonight
And I [A]can?t stand the pain
And I [C#]can?t make it go away
No I [A]can?t stand the pain
Chorus (Guitar 1)

e|-------------|
B|-------------|
G|-------------|   Start on 'me'. Stop after 'I just wanna scream'
D|-----4-6-8---|
A|-4-4---------|
E|-------------|


Chorus (Guitar 2)

How could this happen to [E]me
I made my mist[C#]akes
I?ve got no where to [A]run
The night goes [B]on
As I?m fading [E]away
I?m sick of this l[C#]ife
I just wanna s[A]cream
How could this h[B]appen to me

Verse 2 (Guitar 1)

Same as verse 1. Stop after 'I wanna start this over again'

Play this between 'things i've done' and 'no i cant'

e|------------|
B|------------|
G|-4-6-8-6-8~-|
D|------------|
A|------------|
E|------------|



Verse 2 (Guitar 2)

[C#]Everybody?s screaming
I try to make a sound but no one h[E]ears me
I?m s[C#]lipping off the edge

I?m hanging by a thread
I w[E]anna start this over again
So [A]I try to hold onto a [C#]time when nothing mattered
And [A]I can?t explain what happened
And [C#]I can?t erase the things that I?ve [A]done
No I c[B]an?t

Solo (Guitar 1 only)

e|----------------------------------------------------|
B|----------------------------------------------------|
G|--------------------------------------4-6-----------|
D|---1s3-5-3-1-3--4-2---7-9-11-7s9s7--6-----6--4s6s4~-|
A|-2------------------9-------------------------------|
E|----------------------------------------------------|


Chorus 2 (Guitar 2 only)

Higher distortion


Outro (Guitar 1 only)

e|------------|
B|------------|
G|------------|  x3
D|-----6-8-10-|
A|-6-6-4-6-8--|
E|-4-4--------|
e|------------|
B|------------|
G|------------|
D|-----6-1~~~-|

A|-6-6-4-1~~~-|
E|-4-4---1~~~-|



Order:

Intro
Verse
Chorus
Verse
Chorus
Solo
Chorus 2
Outro


There is the tab of our version of it. Hope you enjoy it

Cheers!

Important: The song above is NOT stored on the Chordie server. The original song is hosted at www.guitaretab.com. Chordie works as a search engine and provides on-the-fly formatting. Chordie does not index songs against artists'/composers' will. To remove this song please click here.

Text color:
Chord color:
Chord grids: 
Font size:    
Page size: 

A B C# E
variations - click chord images

Login - add to songbook

Transpose chords

Tuning

Rating click stars to rate

Layout
Accuracy

SHARE PAGE  




You need to log in to post comments