Guitar Tabs, Chords and Lyrics


Devils And Angels  Misc. Unsigned Bands

-------------------------------------------------------------------------------



-------------------------------------------------------------------------------

e|---2-3-2-0-2---|
B|---3-3-3-3-3---|
G|---2-2-2-2-2---| Timing is a little difficult here, but just listen closely
D|---0-0-0-0-0---| and you’ll eventually get it.
A|---------------|
E|---------------|
To a [G]place where [C]all the devils [Bm]go
Em D Fill A
Days and days go by, but I tell myself the lie I’m getting older
I need to slow to it down, but the way, I don’t know Fill A
Well the devil inside, telling me an order Fill A
To ever feel alive, I’ve got to let her go Fill A


Chorus:
And she says[G] come[C] with me I show you[D] my way
To a [G]place where [C]all the devils [Bm]go
No more [G]pain, no more [C]lie’s, no more [D]worries
It’s a [G]place where [C]all the devils [Bm]go


Bridge:

And I feel [C]cold, so [D]alone
Cause I don’t [C]know, which way to [D]turn
When I [C]feel, like I’m getting[D] weaker
Cause I [G]can’t, ever take[D] control

Solo:

e|--------------------------------------------------------2------------------|
B|--------------------------------------------------------3------------------|
G|---12-9---9-7-4-2---11-7---/7-8-9-11---12-9---9-7-4-2---2------------------|
D|--------------------------------------------------------0------------------|
A|---------------------------------------------------------------------------|
E|---------------------------------------------------------------------------|


Em (mute) D
Devil in my head, angel in the bed getting colder
I cannot, I will not let her go


G C D Fill A
And she says come with me I show you my way
To a [G]place where [C]all the angels [Bm]go
No more [G]pain, no more [C]lie’s, no more [D]worries  Fill A
It’s a [G]place where [C]all true lovers[Bm] go


And she says[G] come[C] with me I show you[D] my way
To a place where all the angels go


| / slide up
| h hammer-on
| p pull-off
===============================================================================

Important: The song above is NOT stored on the Chordie server. The original song is hosted at www.guitaretab.com. Chordie works as a search engine and provides on-the-fly formatting. Chordie does not index songs against artists'/composers' will. To remove this song please click here.

Text color:
Chord color:
Chord grids: 
Font size:    
Page size: 

Bm C D G
variations - click chord images

Login - add to songbook

Transpose chords

Tuning

Rating click stars to rate

Layout
Accuracy

SHARE PAGE  




You need to log in to post comments