""; ?> Crime Of Our Lives by Misc. Unsigned Bands - guitar chords, guitar tabs and lyrics - chordie

Crime Of Our Lives

Misc. Unsigned Bands

-------------------------------------------------------------------------------

-------------------------------------------------------------------------------

 EEsusEAAsusABBsusBAAsusA
    v  ^  v  v  ^  ^  v  v  ^  v  v  ^  ^  v  v  ^  v  v  ^  ^  v  v  ^  v  v  ^  ^  v
e|--0--0--0--0--0--0--0--0--0--0--0--0--0--0--0--0--0--0--0--0--0--0--0--0--0--0--0--0--|
B|--0--0--0--2--0--0--0--2--2--2--3--2--2--2--4--4--4--5--4--4--4--2--2--2--3--2--2--2--|
G|--1--1--1--1--1--1--1--2--2--2--2--2--2--2--4--4--4--4--4--4--4--2--2--2--2--2--2--2--|
D|--2-----2--2--------2--2-----2--2--------2--4-----4--4--------4--2-----2--2--------0--|
A|--2--------------------0--------------------0--------------------0--------------------|
E|--0-----------------------------------------------------------------------------------|


 EEsusE
"I'm prone to quick judgment
 AAsusA
I've wasted my life   
 BBsusB
It was good and worthy 
 AAsusA
Of the attention I gave you
 E
But it's mine to do what
 AAsusA
will and I wanna  
 BBsusB
I will lift a great burden 
 AAsusA
For some peace and I've gotta  
 EEsusE
No sea land and sky    
 AAsusA
ignore the great questions
 BBsusB
I don't care about spirits
 AAsusA
And the stars we behold 
 EAsusE
You can still tear me up 
 AAsusA
Yeah, ya know what I mean  
 BBsusB
If I told you I couldn't
 AAsusA
Then I never came clean  
 EEsusE
I've always come dirty  
 AAsusA
With my guilt and expressed
 BBsusB
If I made little sense 
 AAsusA
I'm tryin' my best   
 B
I'll be tryin'
 A
The crime of our lives"

Then play the verse until you feel like stopping.

Great song, by a great musician.

| / slide up
| \ slide down
| h hammer-on
| p pull-off
| ~ vibrato
| + harmonic
| x Mute note
===============================================================================

A Asus B Bsus E Esus
variations - click chord images
Transpose chords:
Tuning:
Cool service:
View: Size:
A  A  A
Rating:
Layout:
  • Currently 2.8/5 Stars.
  • 1
  • 2
  • 3
  • 4
  • 5
 
Accuracy:
  • Currently 3/5 Stars.
  • 1
  • 2
  • 3
  • 4
  • 5
 
click stars to rate
Chordie recommends:
Check out JamPlay.com for online video guitar lessons
Songbook:
Login to add this song to your songbook
Support the artist
Preview/buy this song
MSN Music
Why this non-profit ad?

 
login to add comments/video/corrections