Guitar Tabs, Chords and Lyrics


Cheater   Misc. Unsigned Bands



This Is My Bands First Song, Yeah, We Are Still Working On It, It Is A Very Fast Paced Song

Intro
------------------------------|
------------------------------|
------------------------------|
-----0-----0-----0-----0--0---|
------0------0----0-----0-----|
-0------03-----05---08---8----|

-----------------------------------|
-----------------------------------|
-----------------------------------|
-4------------4-------2-------4----|
-2-245420-5-45-540-224-420-445-547-|


Important: The song above is NOT stored on the Chordie server. The original song is hosted at www.guitaretab.com. Chordie works as a search engine and provides on-the-fly formatting. Chordie does not index songs against artists'/composers' will. To remove this song please click here.

This song is displayed as text-only. Transposing and tuning is only available for chordpro-songs.

Login - add to songbook

Rating click stars to rate

Layout
Accuracy

SHARE PAGE  




You need to log in to post comments