Guitar Tabs, Chords and Lyrics


Fire Esho   Misc. Unsigned Bands



****************************************
Song  - Firay Esho
Band  - Lakkhichhara
Album - Eka
****************************************
Tabbed by Rohan Dasgupta
E-Mail - rohanzdomain@gmail.com
****************************************

Intro:

	e------0-----0-------e
	B---2-2-----2--------B
	G----2-----2--2------G
	D-------2-2----2-----D
	A--------0------0----A
	E----------------0---E

Stanza1:
A-------------F#m
Tumi nei jani tai
A----------------F#m
Ki je achche janina
A---------E----------------F#m
Nodi holo aamar du chokher jol
A----------------F#m
Ei nouko aaj tolomol

Stanza2:
A------------------F#m----
A miththe noy, shotti jeno
A------------F#m-
Bhalobashi ekhono
A---------------F#m----------
Tomake tai aami bhulte parini
A-------F#m---
Bhulteo chaini

Bridge:
E-------------Bm--------D---
Kotobar dekhe onno karo mukh
E---------------D-A-
Dekechhi tomari naam

Chorus:
-----F#m---A------D--
Aaro ekbar kache esho
-----F#m---A------D--
Aaro ekbar bhalobasho
----F#m------A------D--
Ei shesh bar firay esho
-------A----F#m---E----------A-----
Dekhbe tumi bodle gechhe shobkichhu


Koto mash koto din
Dekhini tomake
Keno bolo sheshe ei bhabe
Chole gele kichhu na bole


Kotobar aami nil shagore dub
Diye khujechhi tomake





D----------------------A---------F#m
Durotte kome jaye shay bhlobasha noy
D------------------------A---------F#m
Shomoye muchhe jaye shay bhlobasha noy
A------------------D-------------E--
A kono hashi-khela noy ... khela noy





Important: The song above is NOT stored on the Chordie server. The original song is hosted at www.guitaretab.com. Chordie works as a search engine and provides on-the-fly formatting. Chordie does not index songs against artists'/composers' will. To remove this song please click here.

This song is displayed as text-only. Transposing and tuning is only available for chordpro-songs.

Login - add to songbook

Rating click stars to rate

Layout
Accuracy

SHARE PAGE  




You need to log in to post comments