Guitar Tabs, Chords and Lyrics


Sixpounder   Misc. Unsigned Bands



Matt Hare-gtr I-eb,Bb,Gb,Db,Ab,Eb-clean



Intro
|-------------------------|
|-------------------------|
|-------------------------|
|-------------------------|
|-------------------------|
|-7-5-7-5-7-7-5-7-5-7-5-0-|(x4)


Verse
|-------------------------------------|
|-------------------------------------|
|-------------------------------------|
|-------11-------11-------12-------12-|
|-11-12----11-12----11-12----11-12----|
|-------------------------------------|(x2)


Chorus
|-------------------------|
|-------------------------|
|-------------------------|
|-------------------------|
|-----7-----7-----8-----8-|
|-7-8---7-8---7-8---7-8---|(x4)


Bridge(strumming)
|-1-0-1-0-|
|-0-2-0-0-|
|-0-2-0-1-|
|-0-2-0-2-|
|-2-0-2-2-|
|-3---3-0-|
  G A G E


|-12*-------------------------------------12*-|
|-----12*-----------------------------12*-----|
|---------12*---------------------12*---------|
|-------------12*-------------12*-------------|
|-----------------12*-----12*-----------------|
|---------------------12*---------------------|


Outro
|-------------------------------------------------------|
|-------------------------------------------------------|
|-------------------------------------------------------|
|-------------------------------------------------------|
|-------------------------------------------------------|


Important: The song above is NOT stored on the Chordie server. The original song is hosted at www.guitaretab.com. Chordie works as a search engine and provides on-the-fly formatting. Chordie does not index songs against artists'/composers' will. To remove this song please click here.

This song is displayed as text-only. Transposing and tuning is only available for chordpro-songs.

Login - add to songbook

Rating click stars to rate

Layout
Accuracy

SHARE PAGE  




You need to log in to post comments