Guitar Tabs, Chords and Lyrics


The Star Wars Trilogy   Misc. Unsigned Bands



Running For Mayor
The Star Wars Trilogy


Intro

(both guitars)
e |---------------------          --------------------------|
B |---------------------          --------------------------|
G |------------0--------          --------------------------|
D |--2---------3-(6x)---          -----9----7---------------|
A |--2--(6x)---2--------slide into----10----9---------------|
E |--0------------------          --------------------------|


Verse

e --------------------------------|
B --------------------------------|
G --------5-----------------------|
D ---2----5---5---5---------------|
A ---2----3---5---5---------------|
E ---0--------3---2---------------| (4x)


Break

e --------------------------------|
B --------------------------------|
G --------------------------------|
D ---22--44--55-------5-----------|
A ---33--55--77-(2x)--5-----------|
E --------------------3-----------|


Chours

e --------------------------------|
B --------------------------------|
G ---55555--77777--9999-----------|
D ---55555--77777--9999-----------|
A ---33333--55555--7777-----------|
E -----------------0000-----------|

Outro


(both guitars)
e |---------------------          --------------------------|
B |---------------------          --------------------------|
G |------------0--------          --------------------------|
D |--2---------3-(6x)---          -----9----7----------2----|
A |--2--(6x)---2--------slide into----10----9----(end)-2----|


Important: The song above is NOT stored on the Chordie server. The original song is hosted at www.guitaretab.com. Chordie works as a search engine and provides on-the-fly formatting. Chordie does not index songs against artists'/composers' will. To remove this song please click here.

This song is displayed as text-only. Transposing and tuning is only available for chordpro-songs.

Login - add to songbook

Rating click stars to rate

Layout
Accuracy

SHARE PAGE  




You need to log in to post comments