Guitar Tabs, Chords and Lyrics


Want But Not Need   Misc. Unsigned Bands


e|--------0----------------0----------------0----------------0----------|








B|----------0---0------------0---0------------0---0------------0---0----|








G|----6-------6--------4-------4--------2-------2--------1-------1------|X 2



D|------6----------6-----4----------4-----2----------2-----2------------|



A|--4----------------2----------------0----------------2----------------|



E|----------------------------------------------------------------------|





                                                                                                


e|--0-----0---0-----0---0-----0---0-----0-----|
B|--0---0---0-0---0---0-0---0---0-0---0---0---|
G|--6---------4---------2---------1-----------| X 2
D|--6---------4---------2---------2-----------|
A|--4---------2---------0---------2-----------|
E|--------------------------------------------|








CHORUS


                                                                                                


e|--0---0---0---0-----------|
B|--0---0---0---0-----------|
G|--1---2---6---4-----------| X 4
D|--2---2---6---4-----------|
A|--2---0---4---2-----------|
E|--------------------------|








BRIDGE


                                                                                                


e|------0-----0-----0-----0-|
B|------0-----0-----0-----0-|
G|------6-----4-----2-----1-| X 2
D|----6-6---4-4---2-2---2-2-|
A|--4---4-2---2-0---0-2---2-|
E|--------------------------|



Important: The song above is NOT stored on the Chordie server. The original song is hosted at www.guitaretab.com. Chordie works as a search engine and provides on-the-fly formatting. Chordie does not index songs against artists'/composers' will. To remove this song please click here.

This song is displayed as text-only. Transposing and tuning is only available for chordpro-songs.

Login - add to songbook

Rating click stars to rate

Layout
Accuracy

SHARE PAGE  




You need to log in to post comments