Guitar Tabs, Chords and Lyrics


The Ghost Of Jenny Glass   Misc. Unsigned Bands



i didn't find anything about this great band... it's wrong!
This is tab of my favourite song. Enjoy=) 



The Ghost of Jenny Glass

Drop B tuning

*= palm mutes 

Intro both gtrs 
|-----------------------------------------------------|
|-----------------------------------------------------|
|-----------------------------------------------------|
|-4\2-2/4-------4\2-2/4-------4\2-2/4-0-7-5-4-0-7-5-4-|
|-4\2-2/4-------4\2-2/4-------4\2-2/4-0-7-5-4-0-7-5-4-|
|-4\2-2/4-------4\2-2/4-------4\2-2/4-0-7-5-4-0-7-5-4-|
                                      * * * * * * * *


Chorus Gtr 2 (part 1)
|-------------------------------------|
|-------------------------------------|
|--------------------16/18\16-13/14\9-|
|-44-44-22-22-00-00-------------------|
|-44-44-22-22-00-00--14/16\14-11/12\7-|
|-44-44-22-22-00-00-------------------|

Chorus Gtr 2 (part 2)
|-------------------------------------|
|-------------------------------------|
|-------------------------------------|
|-44-44-22-22-00-00--4--4--0--0--2----|
|-44-44-22-22-00-00--4--4--0--0--2----|
|-44-44-22-22-00-00--4--4--0--0--2----|


Chorus Jasyn 
|----------12---10-----------------------------|
|-7---9-10---------12----9--10-12--14--7--9--5-|
|----------------------------------------------|
|----------------------------------------------|
|----------------------------------------------|
|----------------------------------------------|



Jasyn (after first chorus)
|---------------------------------------|
|---------------------------------------|
|---------------------------------------|
|-44444444444444------44444444444444----|
|-44444444444444------44444444444444----|
|-44444444444444------44444444444444-4^-|


Verse Guitar 2
|-----------------------------------------------------|
|-----------------------------------------------------|
|-----------------------------------------------------|
|-4\2-2/4-6h7p6-4\2-2/4-6h7p6-4\2-2/4-0-7-5-4-0-7-5-4-|
|-4\2-2/4-------4\2-2/4-------4\2-2/4-0-7-5-4-0-7-5-4-|
|-4\2-2/4-------4\2-2/4-------4\2-2/4-0-7-5-4-0-7-5-4-|
                                      * * * * * * * *
Verse Jasyn
|-----------------------------------------------------|
|-----------------------------------------------------|
|---------6h7p6---------6h7p6-------------------------|
|-4\2-2/4-------4\2-2/4-------4\2-2/4-0-7-5-4-0-7-5-4-|
|-4\2-2/4-------4\2-2/4-------4\2-2/4-0-7-5-4-0-7-5-4-|
|-4\2-2/4-------4\2-2/4-------4\2-2/4-0-7-5-4-0-7-5-4-|
                                      * * * * * * * *


Guitar 2 (all four times) Jasyn (1st and 3rd times)
|---------------------------------------|
|---------------------------------------|
|-1111111111\9999\------9------9--------|
|-----------------55555-9-4-44-9-2-22/4-|
|--9-9-9-9-9\7777\55555-7-4-44-7-2-22/4-|
|-----------------55555---4-44---2-22/4-|

Jasyn (2nd time only) (every 4th time continue up to 14th fret octave)
|------------------------------------------------|
|------------------------------------------------|
|-1111111111/13131313/1414141414-9------9--------|
|--------------------------------9-4-44-9-2-22/4-|
|--9-9-9-9-9/11111111/1212121212-7-4-44-7-2-22/4-|
|----------------------------------4-44---2-22/4-|



Gtr 2 in breakdown Clean GTR (listen for strum pattern)
|---------------------------|
|--9-------7------5-------7-|
|--9-------7------5-------7-|
|-11-------9------7-------9-|
|---------------------------|
|---------------------------|


Jasyn Breakdown light Dist with 1/8 delay
|---------0--0h2p0---------------0--0h7h7p0-0h7h9p0-|
|-------0----------------------0--------------------|
|---4--------------2-h-4----4-----------------------|
|-2-----------------------2-------------------------|
|---------------------------------------------------|
|---------------------------------------------------|


Ending riff both guitars
|--------------------------------------------------------|
|--------------------------------------------------------|
|--------------------------------------------------------|
|-4\2-2/4-0000-4\2-2/4-0000-4\2-2/4-0000-7\5---5\4---0h4-|
|-4\2-2/4-0000-4\2-2/4-0000-4\2-2/4-0000-7\5-0-5\4-0-0h4-|
|-4\2-2/4-0000-4\2-2/4-0000-4\2-2/4-0000-7\5-0-5\4-0-0h4-|
          ****         ****         ****     *     *


http://syxonline.com/


Important: The song above is NOT stored on the Chordie server. The original song is hosted at www.guitaretab.com. Chordie works as a search engine and provides on-the-fly formatting. Chordie does not index songs against artists'/composers' will. To remove this song please click here.

This song is displayed as text-only. Transposing and tuning is only available for chordpro-songs.

Login - add to songbook

Rating click stars to rate

Layout
Accuracy

SHARE PAGE  




You need to log in to post comments