Guitar Tabs, Chords and Lyrics


Only In My Dreams  Misc. Unsigned Bands

-------------------------------------------------------------------------------



-------------------------------------------------------------------------------

e|---------------------------------------------------------------------------|
B|----1—-1h3-----3---1p0h1--1--0---------------------------------------------|
G|---0-0--------0-0-------2-2------2--0--------------------------------------|
D|--2---2------0---0-----2---2----3-3--0-------------------------------------|
A|-3--------------------0--------3---3---------------------------------------|
E|-----------3------------------1--------------------------------------------|
e|------0-—0h3----3--0-----0---0h3------1---0-------------------------------.|
B|-----1-1-------0-0--0---1-1----------1-1---0------------------------------.|
G|----0---0-----0---0----2---2--------2---2---------------------------------.|
D|--------------------------------------------------------------------------.|
A|-3--------------------0---------------------------------------------------.|
E|-------------3--------------------1---------------------------------------.|
To tel[G]l you how I feel    [Am]
It’s like I’m not beh[F]ind the wheel     [C]
Because you’ve taken over me[G]            [Am]
But I’m livin’ i[F]n a dream  [C]
Pre Chorus (part 2)
And only i[C]n my dreams        [G]
[Am]only in my dreams [F]
cause only i[C]n my dreams        [G]
can I see[Am] you out in front wi[F]th me
and if  I let [C]my dreams be dreams          [G]
then that’s all th[Am]ey’ll ever be        [F]
but I don’[C]t want to go on livin i[G]n
these craz[Am]y dreamt up scenes       [F]

Chorus
So[C] baby     [G]
Come to me and[Am] see       [F]
That baby I want [C]somethi[G]ng else                [Am]
In my dre[F]ams
And mayb[C]e         [G]
you will see a[Am]nd we’ll be        [F]
togeth[C]er outside of[G] my
c[Am]omforting dream   [F]

Bridge


That’s it for any questions or corrections email me on nah_ur_a_gimp@hotmail.com
or pricey_91@hotmail.com

Important: The song above is NOT stored on the Chordie server. The original song is hosted at www.guitaretab.com. Chordie works as a search engine and provides on-the-fly formatting. Chordie does not index songs against artists'/composers' will. To remove this song please click here.

Text color:
Chord color:
Chord grids: 
Font size:    
Page size: 

Am C F G
variations - click chord images

Login - add to songbook

Transpose chords

Tuning

Rating click stars to rate

Layout
Accuracy

SHARE PAGE  




You need to log in to post comments