Guitar Tabs, Chords and Lyrics


Talent   Misc. Unsigned Bands



Song: Talent
Artist: Neighbours Pain (www.8ung.at/benedikt.wagner/neighbours_pain/start_np2.htm)
Album: Probelauf
Tabbed by: Ossi


Main Riff (played as intro,verse and outro):

e:|-----------3--3/5----5--3-------------------------|
b:|--------1----------------------1-3--3/5--3--1-----|
g:|-----2------------0---------2------------------2--|
d:|--3-----------------------------------------------|
a:|--------------------------------------------------|
e:|--------------------------------------------------|

verse 1:
Keine Plattenfirma will uns haben
alle sagen wir sind viel zu laut
Keine Menschen kennen unsre namen
alle sagen wir sehn scheisse aus
Menschen sehn uns an und tuscheln
halten uns für Abschaum des Systems
wir sind eben keine süße Boygroup
Kämpfen mit viel Geist gegen das System

Chorus:
F          C               G
Und trotzdem haben wir Talent
Und trotzdem haben wir Talent
Ich weiß dass uns bald jeder kennt, bald jeder unsre Namen nennt
denn wir sind jung und haben Talent

verse 2:
Kriegen keinen Ruhm wir gehen studieren
wollen endlich Platten produzieren
machen Musik wies uns gefällt
und bald kennt uns die ganze Welt


Intro (Main Riff x4)
verse 1 (Main Riff x8)
chorus
Interlude (Main Riff x2)
verse 2 (Main Riff)
Chorus x2
Outro (Main Riff x6)


Chords used:
    F  C  G
e:|---------|
b:|---------|
g:|----5----|
d:|-3--5--5-|
a:|-3--3--5-|


Important: The song above is NOT stored on the Chordie server. The original song is hosted at www.guitaretab.com. Chordie works as a search engine and provides on-the-fly formatting. Chordie does not index songs against artists'/composers' will. To remove this song please click here.

This song is displayed as text-only. Transposing and tuning is only available for chordpro-songs.

Login - add to songbook

Rating click stars to rate

Layout
Accuracy

SHARE PAGE  




You need to log in to post comments