Guitar Tabs, Chords and Lyrics


Plain As Can Be   Misc. Unsigned Bands



Outtake - Plain As Can be Tabbed By Their Drummer chazmidds

Intro...
|--------------------------------------------------------||
|--------------------------------------------------------||
|---666----------666----------666------------------------||
|---666--6--666--666--8--888--666--4--444----------------||
|---444--6--666--444--8--888--444--4--444----------------||TIMES 2
|--------4--444-------6--666-------2--222----------------||

Verse
|------------------------------------------------------------------||
|------------------------------------------------------------------||
|--6--666-------------------------6--666---------------------------||
|--6--666—6--666--8--888--4--444--6--666--6—66/--8/4--444--4-------||
|--4--444—6--666--8--888--4--444--4--444--6—66/--8/4--444--4-------||TIMES 2
|---------4--444--6--666--2--222----------4-44/--6/2--222--2-------||


Chorus
|-----------------------||
|-----------------------||
|---------666-----------||
|---888---666---66------||
|---888---444---66------||TIMES 2
|---666---------44------||

Verse
|------------------------------------------------------------------||
|------------------------------------------------------------------||
|--6--666-------------------------6--666---------------------------||
|--6--666—6--666--8--888--4--444--6--666--6—66/--8/4--444--4-------||
|--4--444—6--666--8--888--4--444--4--444--6—66/--8/4--444--4-------||TIMES 2
|---------4--444--6--666--2--222----------4-44/--6/2--222--2-------||



Chorus
|-----------------------||
|-----------------------||
|---------666-----------||
|---888---666---66------||
|---888---444---66------||TIMES 2
|---666---------44------||

Verse
|------------------------------------------------------------------||
|------------------------------------------------------------------||
|--6--666-------------------------6--666---------------------------||
|--6--666—6--666--8--888--4--444--6--666--6—66/--8/4--444--4-------||
|--4--444—6--666--8--888--4--444--4--444--6—66/--8/4--444--4-------||TIMES 2
|---------4--444--6--666--2--222----------4-44/--6/2--222--2-------||

Last Chorus

|----------------------------||
|----------------------------||
|--------666-----------------||
|---888--666--66--4444-------||
|---888--444--66--4444-------||
|---666-------44—-2222-------||



Link To Out-Takes Site www.outtaketheband.moonfruit.com or
Out-Takes My Space : www.myspace.com/outtake


Important: The song above is NOT stored on the Chordie server. The original song is hosted at www.guitaretab.com. Chordie works as a search engine and provides on-the-fly formatting. Chordie does not index songs against artists'/composers' will. To remove this song please click here.

This song is displayed as text-only. Transposing and tuning is only available for chordpro-songs.

Login - add to songbook

Rating click stars to rate

Layout
Accuracy

SHARE PAGE  




You need to log in to post comments