Guitar Tabs, Chords and Lyrics


Unnoticed She Dies   Misc. Unsigned Bands



hey this is our first band tab and its just me the main guitar there still no second 
so guys wait for it!!.

Intro
|--------------------------------------------------------|(x2)
|--------------------------------------------------------|
|-2-2-2-22222---------2-2-2-22222------------------------|
|-2-2-2-22222--55555--2-2-2-22222--33333-----------------|
|-2-2-2-22222--55555--2-2-2-22222--33333-----------------|
|-0-0-0-00000--33333--2-2-2-22222--33333-----------------|
  . . . .....  .....  . . . .....  .....

Then same thing 2 times but not palm muted.

Verse 1
|---------------------------------------|(x6)
|---------------------------------------|maybe six times and maybe more.
|---------------------------------------|
|----0----0-----0---0-----0----0--0-0---|
|-2-----2---0---------------------2-2---|
|-------------3---3---0-2---2-----------|

The chorus its all done by second guitar.

them comes the other.

Verse 2
|---------------------------------------|(x5)
|---------------------------------------|five time until verse 2 ends.
|---------------------------------------|
|---0---0----4---4---0---2--4-----------|
|-2---2----2---2---0---0-------4-0------|
|---------------------------------------|

them the chorus done by the two guitar.

and them the intro but the first to times goes clean and slowin down and the last 2 
very very palm muted and faster.

and them finishied with the verse 1 like an outro

The other guitar is gonna be published with the same tittle song but in the tittle is 
say Bullets Goes Better "g2"


Important: The song above is NOT stored on the Chordie server. The original song is hosted at www.guitaretab.com. Chordie works as a search engine and provides on-the-fly formatting. Chordie does not index songs against artists'/composers' will. To remove this song please click here.

This song is displayed as text-only. Transposing and tuning is only available for chordpro-songs.

Login - add to songbook

Rating click stars to rate

Layout
Accuracy

SHARE PAGE  




You need to log in to post comments